Song name
# A B C D E F G H I J K L M N O P Q R S T U V W X Y Z

Passafire - Start From Scratch chords

Highlighted       Show chord diagrams
This is the song "Start From Scratch" by PASSAFIRE
from the album 'Start From Scratch' - http://passafiretheband.com/

Song tabbed by Johnny Cosmic
http://johnnycosmic.bandcamp.com/


INTRO    A#m - D#m

           A#m 
Like black holes in space, things so easily erased 
     D#m   
Only time will tell, what's left on the face 
       A#m 
Of the world were living in, and the love were giving 
       D#m   
I'm so easily amazed, that the globe keeps spinning 


[Chorus]
F#                 G#    D#m                  
And now were faced, with time in a penitentiary 
F#           G#         D#m  
Slow the pace, Cus were gonna get there eventually 
F#              G#          D#m  
To that dying day, When the only words we can say 
F#                            G#                D#m  
Shoulda coulda woulda, but we didn't so we fade away 


            A#m 
Like black clouds in the sky, warning you and I 
         D#m   
That the rains gonna come, and the mud's gonna slide 
        A#m 
And the homes in it's path, piles of wood and broken glass 
    D#m   
And when it's all over, start from scratch 


[Chorus]
F#                 G#    D#m                  
And now were faced, with time in a penitentiary 
F#           G#         D#m  
Slow the pace, Cus were gonna get there eventually 
F#              G#          D#m  
To that dying day, When the only words we can say 
F#                            G#                D#m  
Shoulda coulda woulda, but we didn't so we fade away 


[SOLO]

D#m for 8 Bars

Then  G#m - D#m  3xs

and on the last one  G#m - C# -  D#m-Fm




           A#m              D#m
Like black holes in space           (echo and repeat)



Start from scratch



Chords low string to high string (6-5-4-3-2-1)


A#m  6-8-8-6-6-6

D#m  X-6-8-8-7-6

F#   2-4-4-3-2-2

G#   4-6-6-5-4-4

G#m  4-6-6-4-4-4

C#   X-4-6-6-6-X

Fm   X-8-10-10-9-8



[solo] tabbed for guitar / played on melodica for the recording

e|---------------------------------|
B|---------------------------------|
G|-6--6----6----6--8---10--6-------|
D|-----------8---------------------|
A|---------------------------------|
E|---------------------------------|


e|----------------------------------|
B|----------------------------------|
G|----6--8--10--6-------6--8--10-8--|
D|-8------------------8-------------|
A|----------------------------------|
E|----------------------------------|


e|---------------------------------|
B|---------------------------------|
G|---6----------------6------------|
D|-------8--6--8----------8--6-----|
A|---------------------------------|
E|---------------------------------|

repeat
Tap to rate this tab
# A B C D E F G H I J K L M N O P Q R S T U V W X Y Z