Song name
# A B C D E F G H I J K L M N O P Q R S T U V W X Y Z

Passafire - Shapes And Colors tab

|16-14-12-11--------------9-7---5---|
|------------12-9-------9-----------|
|-----------------8-6-9-------------|
|-----------------------------------|
|-----------------------------------|
|-----------------------------------|

|16-14-12-11--------------9-7-5-5p4----|
|------------12-9-------9----------7p5-|
|-----------------8-6-9----------------|
|--------------------------------------|
|--------------------------------------|
|--------------------------------------|


Tap to rate this tab
# A B C D E F G H I J K L M N O P Q R S T U V W X Y Z