Song name
# A B C D E F G H I J K L M N O P Q R S T U V W X Y Z

Passafire - Feel It tab

This is pretty much the whole song. You can also hear some minor
picking while playing each chord in the beginning which is not
hard to figure out at all (Strum Down once and picking back Up).

The Rhythm for the rest of the song is just downstrokes.

|---1-1--1-1---|---1-1--1-1---|---6-6--6-6---|---6-6--6-6---|
|---1-1--1-1---|---1-1--1-1---|---8-8--8-8---|---8-8--8-8---|
|---1-1--1-1---|---1-1--1-1---|---8-8--8-8---|---8-8--8-8---|
|---3-3--3-3---|---3-3--3-3---|---8-8--8-8---|---8-8--8-8---|
|---3-3--3-3---|---3-3--3-3---|---6-6--6-6---|---6-6--6-6---|
|---1-1--1-1---|---1-1--1-1---|---6-6--6-6---|---6-6--6-6---|


|---------------------|---6-6--6-6---|---6-6--6-6---|----------------|
|---------------------|---6-6--6-6---|---6-6--6-6---|----------------|
|---10--8--6--5h6p5---|---6-6--6-6---|---6-6--6-6---|---8--6--5------|
|---------------------|---8-8--8-8---|---8-8--8-8---|------------6---|
|---------------------|---8-8--8-8---|---8-8--8-8---|----------------|
|---------------------|---6-6--6-6---|---6-6--8-8---|----------------|


                           Then Back to the Top



Enjoy,
   -JohnnyB
Tap to rate this tab
# A B C D E F G H I J K L M N O P Q R S T U V W X Y Z