Song name
# A B C D E F G H I J K L M N O P Q R S T U V W X Y Z

Passafire - Carousel tab

|------------------------------------------------|
|-------12^-------12^-------12^---12-13-12-10~~~-|
|----11--------11--------11----------------------|X3
|-99--------99--------99-------------------------|
|------------------------------------------------|
|------------------------------------------------|

|------------------------------------------------|
|-------12^-------12^-------12^---12-13-12-8~~~~~|
|----11--------11--------11----------------------|
|-99--------99--------99-------------------------|
|------------------------------------------------|
|------------------------------------------------|
Tap to rate this tab
 
# A B C D E F G H I J K L M N O P Q R S T U V W X Y Z