Song name
# A B C D E F G H I J K L M N O P Q R S T U V W X Y Z

Passafire - Kiss My Head tab

-------------------------------------------------------------------------------
                             Kiss My Head - PASSAFIRE
-----------------------------------------------------------------------------
Tuning: Standard duh

Just figured this out by myself, don't hate too bad, great song, greater band
e|-x-8--x-8-8-8-x-8--8-8--8-11-----------------------------------------|
B|-x-9--x-9-9-p8x-9--9-8--9--9-----------------------------------------|
G|-x-8--x-8-8-8-x-8--8-8--8--8-----------------------------------------|
D|-x-10-x-101010x-10-1010-10-10----------------------------------------|
A|---------------------------------------------------------------------|
E|---------------------------------------------------------------------|

Super easy, intro and some parts of the song.
Tap to rate this tab
# A B C D E F G H I J K L M N O P Q R S T U V W X Y Z