Song name
# A B C D E F G H I J K L M N O P Q R S T U V W X Y Z

Passafire - Shapes And Colors tab

"Shapes and Colors"  -  Passafire

Tabbed by: Jahbrudda

Great song by Passafire, definitely one of my favorites from them! Anyway the intro has 
been tabbed a couple times, but so far I have not found anything for the rest of the 
song so, here you go! Enjoy



e|--16-14-12-11-------------9-7-5---------------|
B|--------------12-9------9---------------------|
G|-------------------8-6-9----------------------|
D|----------------------------------------------|
A|----------------------------------------------|
E|----------------------------------------------|

e|--16-14-12-11--------------9-7-5-5p4----------|                 Intro
B|--------------12-9-------9-----------7p5------|
G|-------------------8-6-9----------------------|
D|----------------------------------------------|
A|----------------------------------------------|
E|----------------------------------------------|

     E     C#    A     E
e|-x---x---5---0------|
B|-x---x---5---0------|
G|-9---6---6---1------|         Chorus
D|-9---6---7---2------|
A|-7---4---7---2------|
E|-x---x---5---0------|

     Gm#     Cm#
e|--4-----4-----------|
B|--4-----5-----------|
G|--4-----6-----------|         Verse
D|--6-----6-----------|
A|--6-----4-----------|
E|--4-----x-----------|

     * I saw a video on youtube of them playing this acoustic and the bass player does 
this kinda run/riff during the bridge and makes a pretty big impact on this part of the 
song so I tabbed it out.

e|-----------------------------------------|
B|-----------------------------------------|
G|-----------------------------------------|     Bridge (Bass)
D|-----------------------------------------|
A|-----------------------------------------|
E|--2-2-2-4-2-2-4-2-2-4-5-4-2-4------------|



Bridge (Lead Guitar)

e|-------------------------------10-10-10-12-10-10-12-10-10-12-14-12-10-12---|
B|--7-7-7-9-7-7-9-7-7-9-10-9-7-9---------------------------------------------|
G|---------------------------------------------------------------------------|
D|---------------------------------------------------------------------------|
A|---------------------------------------------------------------------------|
E|---------------------------------------------------------------------------|

e|---11-11-11-12-11-11-12-11-11-12-14-12-11-12---------|
B|-----------------------------------------------------|
G|-----------------------------------------------------|
D|-----------------------------------------------------|
A|-----------------------------------------------------|
E|-----------------------------------------------------|

e|-14-14-14-16-14-14-16-14-14-16-17-16-14-16/-----------|
B|------------------------------------------------------|
G|------------------------------------------------------|
D|------------------------------------------------------|
A|------------------------------------------------------|
E|------------------------------------------------------|

Rythym Guitar plays a steady, E, though out the bridge
Tap to rate this tab
# A B C D E F G H I J K L M N O P Q R S T U V W X Y Z