Song name
# A B C D E F G H I J K L M N O P Q R S T U V W X Y Z

Passenger - Diamonds tab

e|--------------------7--7--7--7--7--7--7--7--7--7--7--7-------|
B|--8--10--12--10--8--8--8--8--8--8--8--8--8--8--8--8--8-------|
G|--------------------9--9--9--9--9--9--9--9--9--9--9--9-------|
D|--9--10--12--10--9--10-10-10-10-10-10-10-10-10-10-10-10------|
A|--------------------10-10-10-10-10-10-10-10-10-10-10-10------|
E|-------------------------------------------------------------|
                      \/ \/ /\ /\ \/ /\ \/ \/ /\ /\ \/ /\

e|-9--------------------7--7--7--7--7--7--7--7--7--7--7--7-------|
B|-10--7--8--10--12--8--8--8--8--8--8--8--8--8--8--8--8--8-------|
G|-11-------------------7--7--7--7--7--7--7--7--7--7--7--7-------|
D|-12--7--9--10--12--9--9--9--9--9--9--9--9--9--9--9--9--9-------|
A|-12-------------------10-10-10-10-10-10-10-10-10-10-10-10------|
E|-9--------------------7--7--7--7--7--7--7--7--7--7--7--7-------|
   \/                   \/ \/ /\ /\ \/ /\ \/ \/ /\ /\ \/ /\

e|--------------------7--7--7--7--7--7--10-7--9---7--8--10--12--8-------|
B|--8--10--12--10--8--8--8--8--8--8--8--8--8--10------------------------|
G|--------------------9--9--9--9--9--9--9--9--11--7--9--10--12--9-------|
D|--9--10--12--10--9--10-10-10-10-10-10-10-10-12------------------------|
A|--------------------10-10-10-10-10-10-10-10-12------------------------|
E|----------------------------------------------------------------------|

Tap to rate this tab
 
# A B C D E F G H I J K L M N O P Q R S T U V W X Y Z