Song name
# A B C D E F G H I J K L M N O P Q R S T U V W X Y Z

Passenger - Wide Eyes tab

Passenger~Wide eyes
Great band and a a nice song :) I think this is as accurate as you can get to this song. 
Just check picking timing and pattern from a video. Enjoy...:)


Capo 4th

Intro


e|---------------------------------------------------------------------------|
B|-----0----------0----------0------------0----------0-------------0---------|
G|-------0-----------0----------0------------0----------0-------------0------|
D|2----------4-----------5-----------0------------------------------------0--|
A|-----------------------------------------------3---------2p0---------------|
E|--------------------------------------------------------------3------------|

e|---------------------------------------------------------------------------|
B|-----0-------0---------0------------0---------0-------0--------------------|
G|------0---------0---------0-----------0---------0-------0------------------|
D|2---------4----------5---------12---------10-------9-----------------------|
A|---------------------------------------------------------------------------|
E|---------------------------------------------------------------------------|

e|---------------------------------------------------------------------------|
B|---0------0--------0-------0---------0-------------0-----------------------|
G|-----0-------0-------0--------0--------0--------------0--------------------|
D|2-------4-------5-------0----------------------------------0---------------|
A|---------------------------------3--------2p0------------------------------|
E|-----------------------------------------------3---------------------------|

e|---------------------------------------------------------------------------|
B|-----1-------------1-----------0----------0-------------3----------3-------|
G|-------0--------------0-----------0----------0------------2----------2-----|
D|-------------2------------------------0-------------0----------0-----------|
A|--3------------------------------------------------------------------------|
E|--------------------------3------------------------------------------------|

e|---------------------------------------------------------------------------|
B|--------0------------0---------0----------0--------------------------------|
G|-----------0-----------0----------0----------0-----------------------------|
D|-----------------0---------0-----------------------------------------------|
A|---------------------------------------3-----------------------------------|
E|--3------------------------------------------------------------------------|

e|---------------------------------------------------------------------------|
B|-----0-----------0---------0----------3------------------------------------|
G|-------0-----------0---------0-----------2---------------------------------|
D|-------------0---------0----------0----------------------------------------|
A|3--------------------------------------------------------------------------|
E|---------------------------------------------------------------------------|

e|---------------------------------------------------------------------------|
B|----0------------0----------0----------0---------0-------------------------|
G|-------0-----------0----------0----------0---------0-----------------------|
D|------------0-----------0--------------------------------------------------|
A|-----------------------------------3---------------------------------------|
E|3--------------------------------------------3-----------------------------|

e|---------------------------------------------------------------------------|
B|----0-------------0-----------0--------------------------------------------|
G|-------0------------0------------0-----------------------------------------|
D|0------------0-----------0-------------------------------------------------|
A|---------------------------------------------------------------------------|
E|---------------------------------------------------------------------------|

^^this part is played in between verses and at the end to work out exact times please 
listen to the track :)


Verse

e|---------------------------------------------------------------------------|
B|------0----------0------------0-------------0------------------------------|
G|--------0-----------0------------0-------------0---------------------------|
D|---------------------------------------------------------------------------|
A|------------2--------------------------2-----------------------------------|
E|0------------------------3-------------------------------------------------|

e|------------------------------------------------------------------------------|
B|------------------------------------------------------------------------------|
G|------------------------------------------------------------------------------|
D|------------------------------------------------------------------------------|
A|3-----------------------------------------------------------------------------|
E|------------------------------------------------------------------------------|

e|---------------------------------------------------------------------------|
B|---------------------------------------------------------------------------|
G|---------------------------------------------------------------------------|
D|---------------------------------------------------------------------------|
A|---------------------------------------------------------------------------|
E|---------------------------------------------------------------------------|

e|---------------------------------------------------------------------------|
B|---------------------------------------------------------------------------|
G|---------------------------------------------------------------------------|
D|---------------------------------------------------------------------------|
A|---------------------------------------------------------------------------|
E|---------------------------------------------------------------------------|

e|---------------------------------------------------------------------------|
B|-----0------------0---------0--------------0-------------------------------|
G|--------0-----------0-----------0------------0-----------------------------|
D|-------------2----------------------2--------------------------------------|
A|3--------------------------------------------------------------------------|
E|------------------------3--------------------------------------------------|

Verse is repeated 3x and part of the intro is added to the end

| /   slide up
| \   slide down
| h   hammer-on
| p   pull-off
| ~   vibrato
| +   harmonic
| x   Mute note
| b   Bend
| pb  Pre-bend
| br  Bend release
| pbr Pre-bend release
| brb Bend release bend

************************************


Thanks :)
Tap to rate this tab
# A B C D E F G H I J K L M N O P Q R S T U V W X Y Z