Song name
# A B C D E F G H I J K L M N O P Q R S T U V W X Y Z

Passenger - Let Her Go tab

Capo 7th fret

  (h) Hammer On  (p) Pull Off

E|-------0-------------------------0-----------0-----------------0-----------|
B|---3-------3---1---------1---------------3-------3---1-------------3---3---|
G|-------------------0h2-------2-------2-------------------0h2-----------2---|
D|---------------------------------------------------------------2---0-------|
A|---------------------------------------------------------------------------|
E|---------------------------------------------------------------------------|



E|---0------------------------------3p0---------|
B|-------3---1--------1-------1-----------0h3---|
G|---------------0h2------2---------------------|
D|----------------------------------2-----------|
A|----------------------------------------------|
E|----------------------------------------3-----|
Tap to rate this tab
# A B C D E F G H I J K L M N O P Q R S T U V W X Y Z