Song name
# A B C D E F G H I J K L M N O P Q R S T U V W X Y Z

Passenger - Golden Thread tab

-------------------------------------------------------------------------------
                             Passenger - Golden Thread
-------------------------------------------------------------------------------
Tabbed by: Josh Barnett
E-mail: barnett880197@hotmail.co.uk

Tuning: Standard (EADGBE)

Capo 7th fret, all positions relative to capo

For video tutorial go to: http://www.youtube.com/watch?v=Fy1pmp1IwKQ 

Intro

e|-3--3--7p3--5p3---3--3-7p3--5p3---3--3-7p3--5p3---3--3-3--5p3--------------|
B|--0--------0----0--0-------0----0--0-------0----0--0-----0-----------------|
G|---0-0----0----0----0-0---0----0----0-0---0----0----0-0-0------------------|
D|---------------------------------------------------------------------------|
A|------------------3----3----3---------------------3----3--3----------------|
E|-3----3----3----------------------0----0----0------------------------------|

Verse/Chorus

e|-3--3--3--3---3--3--3--3--3--3--3--3--3--3--3--3---------------------------|
B|--0---0-0---0--0---0-0---0-0---0-0---0-0---0-0---0-------------------------|
G|---0-0---0-0----0-0---0-0---0-0---0-0---0-0---0-0--------------------------|
D|---------------------------------------------------------------------------|
A|--------------3-----3-----------------3-----3------------------------------|
E|-3-----3------------------0-----0------------------------------------------|

************************************

| /   slide up
| \   slide down
| h   hammer-on
| p   pull-off
| ~   vibrato
| +   harmonic
| x   Mute note
| b   Bend
| pb  Pre-bend
| br  Bend release
| pbr Pre-bend release
| brb Bend release bend

************************************
Tap to rate this tab
# A B C D E F G H I J K L M N O P Q R S T U V W X Y Z