Song name
# A B C D E F G H I J K L M N O P Q R S T U V W X Y Z

Passenger - Patient Love tab

---------------------------------------------------------------------------
                               PATIENT LOVE - Passengers
---------------------------------------------------------------------------
Tabbed by: bocajoay
Tuning: Standard
CAPO: 6
Comments: The chord diagrams provided are the basic plucking patterns. Each chord 
actually has their own embellishments that vary at certain parts of the song. Try 
to listen for them, or just go freestyle!
  
C                         F
e|---------------------|  e|---------------------|
B|---1-----1-----1-----|  B|---1-----1-----1-----|
G|-----0-----0-----0---|  G|-----2-----2-----2---|
D|-------2-----2-----2-|  D|-------3-----3-----3-|
A|-3-------------------|  A|---------------------|
E|---------------------|  E|-1-------------------|

Am                        G
e|---------------------|  e|---------------------|
B|---1-----1-----1-----|  B|---0-----0-----0-----|
G|-----2-----2-----2---|  G|-----0-----0-----0---|
D|-------2-----2-----2-|  D|-------0-----0-----0-|
A|-0-------------------|  A|---------------------|
E|---------------------|  E|-3-------------------|


Intro:
C F Am G x2


Verse 1:
C                F                    Am                       G
  Got a pinch of tobacco in my pocket I'm not gonna roll it no I'm not gonna smoke till we're
C                F                     Am                       G
  Staring at the stars and the rockets twinkling in the silvery night
C             F                        Am                       G
  Two sips of whiskey in the flask but I'm not gonna drink it I swear I'll make it last till we're
C                     F               Am G
  Drinking out of the same glass again


Chorus:
F                C                        G        G                        F
  And though the sun may be washed by the sea, not all will be lost in the new
C                      G           G                      F
Four will not wait for three, for three never waited for two and
C                            G     G                  Am F C G 
Though you will not wait for me... ...  I'll wait for you


C F Am G


Verse 2:
C                F                    Am                       G
  Got a polaroid picture in my wallet I'm not gonna tear it no I'm not gonna spoil it
        C                      F                       Am                      G
It's an unspoken heartbreak, a heartbroken handshake I take with me where I go
C                    F                          Am                G
  Three words on the tip of my tongue not to be spoken or sung or whispered to anyone till
C                    F                    Am G
I'm screaming at the top of my lungs again


Chorus:
F                C                        G        G                        F
  And though the sun may be washed by the sea, not all will be lost in the new
C                      G           G                      F
Four will not wait for three, for three never waited for two and
C                            G     G                  Am     F     C     G 
Though you will not wait for me... ...  I'll wait for you... Oh... Oh... Oh...

              Am     F     C     G 
I'll wait for you... Oh... Oh... Oh...

C F Am G


Outro:
C                F                    Am                       G                         
  Got a pinch of tobacco in my pocket I'm not gonna roll it no I'm not gonna smoke till we're
C                F                     Am                          G
  Staring at the stars and the rockets twinkling in the silvery night

e|---------------------|
B|---0h1p0---------1---|
G|---------0-----0-----|
D|---0h2p0-----2-------|
A|-----------3---------|
E|-3-------------------|
Tap to rate this tab
# A B C D E F G H I J K L M N O P Q R S T U V W X Y Z