Song name
# A B C D E F G H I J K L M N O P Q R S T U V W X Y Z

Passenger - Lifes For The Living tab

Capo 7 

Em7-020030
Gadd4 -320013




   C             Dm     C      Gadd4         C         Em7         Am
         
|-------------0--1------0--------------------0------------0-----------------|
|--1----1--3--------3-----1----1h3--0-1-3----1--1------3--3--3-----1--------|
|----0---------------2-----0---0-----------------0-----0-----0-----2-2------|
|--2--2-------2--0--------------------------------2-------------------2-----|
|--3----3--3------------3--------------------3---------2--2--2-----0--------|
|------------------------------3----3-3-3-----------------------------------|

 
            Dm     C         Gadd4

|------0----1------0---------------------------------|
|-1--3--------3-------1------1h3-3--3p1--1--1p0------|
|--------------2--------0----0---0--0----0--0--------|
|-----------0----------------------------------------|
|-0--0-------------3---------------------------------|
|----------------------------3---3--3----3--3--------|



You can probably add a few more notes here and there but that is pretty much the gist!


Tap to rate this tab
# A B C D E F G H I J K L M N O P Q R S T U V W X Y Z