Song name
# A B C D E F G H I J K L M N O P Q R S T U V W X Y Z

Passenger - Let Her Go tab

Hey Guys :) I think these are the nearly perfect tabs of the intro of Passengerīs Let her Go...

Put your capo on the 7th fred and have fun ;)

e|-----0------------------0-------0-----------------0-------0------------------3p0-------0---|
B|--3-----3--1-------1---------3-----3--1------1------3--3----3--1------1-----1-----1h3--1---|
G|--------------0h2--2--2-----------------0h2-----2-----------------0h2-2--2-----------------|
D|-------------------3--------------------------------------------------3--------------------|
A|---------------------------------------------0-----------------------------------------0---|
E|-----------------------------3----------------------3--3--------------------------3--------|


e|-----0------------------0-------0-----------------0-------0------------------3p0-------0---|
B|--3-----3--1-------1---------3-----3--1------1------3--3----3--1------1-----1-----1h3--1---|
G|--------------0h2--2--2-----------------0h2-----2-----------------0h2-2--2-----------------|
D|-------------------3--------------------------------------------------3--------------------|
A|---------------------------------------------0-----------------------------------------0---|
E|--3--------------------------3----------------------3--3--------------------------3--------|
Tap to rate this tab
 
# A B C D E F G H I J K L M N O P Q R S T U V W X Y Z