Song name
# A B C D E F G H I J K L M N O P Q R S T U V W X Y Z

Passenger - Divers And Submarines tab

Song: Divers And Submarines
Artist: Passenger
Album: Divers And Submarines

Chords Used:
Em - 0220000
G6 - 320030
C - 032010
Am7 - 002010
Dsus2 - 000230



Capo 7th fret



  Em                       G6                       C
e:------------------------|------------------------|------------------------|
B:---0-----0-----0-----0--|---3-----3-----3-----3--|---1-----1-----1-----1--|
G:-----0-----0-----0-----0|-----0-----0-----0-----0|-----0-----0-----0-----0|
D:-------2-----------2----|-------0-----------0----|-------2-----------2----|
A:------------------------|------------------------|-3-----------3----------|
E:-0-----------0----------|-3-----------3----------|------------------------|
                I clung to you                  Like cat hair clings to a


  Am7         Dsus2
e:------------------------||
B:---1-----0-----3-----3--||
G:-----0-----0-----2-----2||
D:-------2-----0-----0----||
A:-0----------------------||
E:------------------------||
   Woolen      shirt



This pattern repeats throughout the whole song, but the volume fluctuates, so look out 
for that.

Hope this helps anyone looking to play this song, as I felt the other tabs already on 
here were missing a lot of parts.
Tap to rate this tab
# A B C D E F G H I J K L M N O P Q R S T U V W X Y Z