Song name
# A B C D E F G H I J K L M N O P Q R S T U V W X Y Z

Passenger - Let Hher Go tab

Tabbed by: Mikk615B (Mikkel Hansen)
E-mail:

Tuning: Standard

Capo: 7th Fret   (I play it on 5th fret because I think it sounds better)

Intro
e|----0--------------------0------------0------------------0----------------|
B|--3---3--1-------1-------1-------1--3---3--1-----1-------1--3------3------|
G|------------0h2------2-------2---------------0h2------2---------0---------|
D|-----------------3-----3-------3-----------------2-------2----0-----------|
A|---------------------------------------------0------0---------------------|
E|------------1------1-------1---------3----------------------3------3------|


e|--0------------------------3p0--------------------------------------------|
B|----3--1-------1---------1--------1--1h3----0-----1---------1--------1----|
G|----------0h2--------2----------------------------------2--------2--------| 2x
D|---------------3-------3--------3---------0-------2-------2--------2------|
A|-----------------------------------------------0-----0---------0----------|
E|----------1--------1-----------------3------------------------------------|


Vers:                F           C              G            Am
e|----0---------------------------------------------------------------------|
B|--3---3--1-----0-------1----1----------1----0-------0----0h1-------0------|
G|-------------------2---------------0------------0--------------2----------|
D|---------------3-----3------0h2------2------0-----0------2-------2--------|
A|-----------------0--------3------3------------0--------0-----0------------|
E|--3----------1----------------------------3-------------------------------|

e|------------------------------------------------------------|
B|----0-------1----1----------1----0-------0---0--------0-----|
G|--------2---------------0------------0------------0---------|
D|----3-----3------0h2------2------0-----0-----0------0-------|
A|------0--------3------3------------0------------0-----------|
E|--1----------------------------3-----------3----------------|

p: pulloff
h: hammer on
Tap to rate this tab
# A B C D E F G H I J K L M N O P Q R S T U V W X Y Z