Song name
# A B C D E F G H I J K L M N O P Q R S T U V W X Y Z

Passenger - Hearts On Fire tab

-------------------------------------------------------------------------------
                             HEARTS ON FIRE - PASSENGER
-------------------------------------------------------------------------------
First ever tab and I dont think there's a proper tab for the intro anywhere, enjoy 
and I'll try my best :)

CHORDS:
C:     x32010
F:     x33210
Am7:   x03013
Cadd9: 302010

Tabbed by: Joemccrystall
E-mail:

Tuning: Standard

Capo 7
   C                   F                          C
e|-0------------0--------------------------------------------------------------|
B|------1h3---------------1-------1---1-------1---------1-------0-------1------|
G|---0--------0---0---0h2-----0-----------0---------0-------0-------0----------|
D|----------2-------------3-----3-----3-----3---------2-------0-------2--------|
A|-3-----3-------------3----3-------3---3---------3-------2-------3------------|
E|-----------------------------------------------------------------------------|
  F                           Am7       Cadd9         F
e|----------------------------3p0---------------0------------------------------|
B|-----1------1---1-------1-------------1h3---------------1-------1---1-------1|
G|-0h2-----0----------0-------------0---------0---0---0h2-----0-----------0----|
D|-----3-----3----3-----3---------2---------0-------------3-----3-----3-----3--|
A|--3----3------3---3----------0-----------------------3----3-------3---3------|
E|---------------------------------------3-------------------------------------|
  C                          F
e|-----------------------------------------------------------------------------|
B|-------1-------0-------1-------1-------1---1-------1-------------------------|
G|---0-------0-------0-------0h2-----0-----------0-----------------------------|
D|-----2-------0-------2---------3-----3-----3-----3---------------------------|
A|-3--------2------3----------3----3-------3---3-------------------------------|
E|-----------------------------------------------------------------------------|
Tap to rate this tab
# A B C D E F G H I J K L M N O P Q R S T U V W X Y Z