Song name
# A B C D E F G H I J K L M N O P Q R S T U V W X Y Z

Passenger - Staring At The Sky tab

Intro/Theme:

Chords: G Cadd9 D G Riff2

Riff1 - over the chords above:
E|-----------------------------------------------------------------------------|
B|----------------------------------------------------------------3------------|
G|--0h2---4---2p0--2p0----0-------0h2--4--2p0--2p0---------0h2--4----2h4p2p0---|
D|----------------------2--------------------------2p0-------------------------|
A|-----------------------------------------------------------------------------|
E|-----------------------------------------------------------------------------|

Riff2:
E|----------------3--------------------|
B|--------------------3----------------|
G|-------------------------------------|
D|-------------------------------------|
A|------2h3--3-----------3p2-----------|
E|-----------------------------3-------|

Riff3:
E|-------------------|
B|-------------------|
G|-------------------|
D|-------------------|
A|-------------------|
E|-------0--2--3-----|


Verse1:
G                               Cadd9
  Well she laughs just like the rain
D                            G          Riff2
  Never know when it's gonna fall
G                      Cadd9
  If it ever will come again
D                       G           Riff2
  Or if it ever came at all

Chorus1:
G                Bm
  I can spend my life
C      D              Em        Riff3
  Just staring at the sky
G                          Cadd9
  She laughs just like the rain
D                    G         Riff2
  I've never felt so dry

Verse2:
G                 Cadd9
  I'm just like a train
D                           G         Riff2
  Never stop and never slow down
G                       Cadd9
  Sing the same songs everyday
D                             G          Riff2
  Just sing'em in a different town

Chorus2:
G                   Bm
  She can spend her life
C     D                    Em         Riff3
  Waiting for the train to come
G                      Cadd9
  Well I'm just like a train
D                       G           Riff2
  With no more track to run
Tap to rate this tab
# A B C D E F G H I J K L M N O P Q R S T U V W X Y Z