Song name
# A B C D E F G H I J K L M N O P Q R S T U V W X Y Z

Passenger - Home tab

Capo 4- Standard Tuning

F* e|--3-----|
   B|--1-----|
   G|--0-----|
   D|--0-----|
   A|--x-----|
   E|--3-----|

Inro & Verse                           2x
e|---------------------------------------|
B|----5---10--5------1---0h1---1---------|
G|----0---0---0------2---0-----0---------|
D|-------------------2---0-----2---------|
A|----3---8---3------0---0h2---3---------|
E|---------------------------------------|

Verse
e|----------------------------------------|
B|---1--1--1----1---1-----1----1----------|
G|---0--0--0----2---2-----0----0----------|
D|---2--0--2----2---3-----2----0----------|
A|---3--2--3----0---3-----3----2----------|
E|----------------------------------------|

Chorus
G       Am          F
So many winding roads
G       Am          F
So many miles to go

Verse (Later On)
C G C G* Am F C

Last Part
C Am G F C Am G* Fmaj7

End with the intro.
Enjoy:)
Tap to rate this tab
 
# A B C D E F G H I J K L M N O P Q R S T U V W X Y Z