Song name
# A B C D E F G H I J K L M N O P Q R S T U V W X Y Z

Passenger - Things That Stop You Dreaming tab

There are 2 different parts here, play either part along to the song or play one each 
with a mate

Tab numbers are relative to the bridge although putting on a capo at 2 makes it easier 
to play some of the pull-offs, especially on an acoustic. Just keep playing relative to 
the bridge or play relative to the capo and -2 from every note.
Thanks for viewing my tab! Enjoy! :D

(>>>>=play through a bar)
(p=pull-off)

Main:
|---|---------|---|---------|---|---------|---|---------|
|---|---------|---|---------|---|---------|---|---------|
|-4-|-6-4-----|-4-|---------|-4-|-6-4-----|-4-|---------|
|---|-----6-7-|---|-7-6---4-|---|-----6-7-|---|-7-6---4-|
|---|---------|---|-----7---|---|---------|---|-----7---|
|---|---------|---|---------|---|---------|---|---------|
Harmony:
|---|---------|---|---------|---|---------|---|---------|
|---|---------|---|---------|---|---------|---|---------|
|---|---------|---|---------|---|---------|---|---------|
|---|---------|---|---------|-6-|-7-6---4-|-6-|-4---6---|
|---|---------|---|---------|---|-----7---|---|---------|
|---|---------|---|---------|---|---------|---|---------|
_________________________________________________________
Main:
|----|-----------|-12-|-11-|----|----------|------|-----|
|-12-|-----------|----|----|-12-|----------|-9-12-|-----|
|----|-9-13p11p9-|----|----|----|9-13p11p9-|------|-9-8-|
|----|-----------|----|----|----|----------|------|-----|
|----|-----------|----|----|----|----------|------|-----|
|----|-----------|----|----|----|----------|------|-----|
Harmony/Bass:
|---|---|----|---------|---|---|-------|----------------|
|---|---|----|---------|---|---|-------|----------------|
|---|---|----|---------|---|---|-4-----|----------------|
|-2>>>>-|-6--|-4-6p4p2-|-2>>>>-|---6-4-|---6p4p2--------|
|---|---|----|---------|---|---|-------|----------------|
|---|---|----|---------|---|---|-------|----------------|
__________________________________________________________
Main:
|----|-----------|-12-|-11-12p11p9-|-11-|-9-|---|-------|
|-12-|-----------|----|------------|----|---|-9>>>>>>>>-|
|----|-9-13p11p9-|----|------------|----|---|---|-------|
|----|-----------|----|------------|----|---|---|-------|
|----|-----------|----|------------|----|---|---|-------|
|----|-----------|----|------------|----|---|---|-------|
Harmony/Bass:
|---|---|----|---------|---|---|---|--------------------|
|---|---|----|---------|---|---|---|--------------------|
|---|---|----|---------|-4-|---|-4>>>>>>>>>>>>>>>>>>>>>-|
|-2>>>>-|-6--|-4-6p4p2-|---|-2-|---|--------------------|
|---|---|----|---------|---|---|---|--------------------|
|---|---|----|---------|---|---|---|--------------------|
Tap to rate this tab
# A B C D E F G H I J K L M N O P Q R S T U V W X Y Z