Song name
# A B C D E F G H I J K L M N O P Q R S T U V W X Y Z

Passenger - David tab

Capo on 5th/6th fret (depending on version)

Strumming pattern:     *when a chord includs high e string
e|--------------|      |--------------|
B|-------x------|      |-------x------|
G|---------x----|      |---------x----|
D|----x------x--|      |----x------x--|
A|--x-----------|      |--------------|
E|--------------|      |--x-----------|

Intro/Verse:           Chorus:
e|--------------|      |--------------------------|
B|--1--1--1--1--|      |--0--1--1--1--0--1--1--0--|
G|--0--0--2--0--|      |--0--0--2--0--0--2--2--0--|
D|--2--0--3--0--|      |--0--2--3--2--0--2--3--0--|
A|--0--x--x--x--|      |-(2)-3--x--3-(2)-0--x-(2)-|
E|-----3--1--3--|      |--3-----1-----3-----1--3--|

Quick update (not really) on strumming pattern. Mike also uses/I think uses this pattern too:
                          *high e string
e|-------------------|    |--------------------|
B|-----x-------------|    |-----x--------------|
G|----------x-----x--|    |-----------x-----x--|
D|-----x-------x-----|    |-----x--------x-----|
A|--x-----x----------|    |--------------------|
E|-------------------|    |--x-----x-----------|

It's not perfect, but that's somewhat a good(ish) thing. Great song, by a 
brilliant artist. Enjoy and happy new year!!
Tap to rate this tab
# A B C D E F G H I J K L M N O P Q R S T U V W X Y Z