Song name
# A B C D E F G H I J K L M N O P Q R S T U V W X Y Z

Passenger - Let Her Go chords

Highlighted       Show chord diagrams
Artist: Passenger
Song: Let Her Go
Album: All the Little Lights

Tuning: Standard (EADGBe)

I take no credit for creating this! It's just a slightly added and modified one 
from version 1 chords and from version 5 tab. ANYWAY enjoy!!

Capo on the 7th

Intro:

                     F        G               Am    G                 F          G    Am

e|-----0---------------------------0-------------0--------0------------------3p0-------0---|
B|--3-----3--1-------1-----1--3--3---3--1------1----3--3----3--1-------1----------1h3--1---|
G|--------------0h2--2--2-----------------0h2--2------------------0h2--2--2----------------|
D|-------------------3----3--------------------2-----------------------3-------------------|
A|----------------------------------------0----0---------------------------------------0---|
E|--------------1-------------3--3------------------3--3----------1----------1----3--------|



    G                F        G               Am    G                 F          G    Am

e|-----0-------------------------0--------------0--------0------------------3p0-------0---|
B|--3-----3--1-------1-----1--3-----3--1------1----3--3----3--1-------1----------1h3--1---|
G|--------------0h2--2--2----------------0h2--2------------------0h2--2--2----------------|
D|-------------------3----3-------------------2-----------------------3-------------------|
A|---------------------------------------0----0---------------------------------------0---|
E|--3-----------1-------------3--------------------3--3----------1----------1----3--------|


Chorus

                       F                       C
Well you only need the light when it s burning low
              G                       Am
Only miss the sun when it s starts to snow
               F                           C       G
Only know your love her when you let her go
                      F                        C
Only know you ve been high when you re feeling low
              G                        Am
Only hate the road when you re missin  home
               F                         C
Only know your love her when you ve let her go
G
  And you let her go

Bridge #1:

e|-------------------------------------------------------0---------|
B|-------0h1-----1-------1-------0-------0-------0-----------3---1-|
G|-----------2-----0h2-------2---------------0---------------------|
D|-----2-------2-------3-------3-------0-------0-------2-------2---|
A|-0-------0-------------------------------------------------------|
E|-----------------1-------1-------3-------3-------0-------0-------|

e|-----------------------------------------------------------------|
B|-------0h1-----1-------1-------0-----0---------1p0---0---------0-|
G|-----------2-----0h2-------2---------0-----0---------0-----0-----|
D|-----2-------2-------3-------3-------0-------0-------0-------0---|
A|-0-------0-------------------------------------------------------|
E|-----------------1-------1-------3-------3-------3-------3-------|

Verse 1

Am                            F
Staring at the bottom of your glass
        G                            Em
Hoping one day you will make a dream last
               Am               F          G
The dreams come slow and goes so fast
    Am                          F
You see her when you close your eyes
      G                           Em
Maybe one day you will understand why
               Am           F         G
Everything you touch surely dies

Chorus
                       F                       C
Well you only need the light when it s burning low
              G                       Am
Only miss the sun when it s starts to snow
               F                           C       G
Only know your love her when you let her go
                      F                        C
Only know you ve been high when you re feeling low
              G                        Am
Only hate the road when you re missin  home
               F                         C
Only know your love her when you've let her go



Verse 2

Am                            F
Staring at the ceiling in the dark
         G                     Em
Same old empty feeling in your heart
           Am                 F       G
Love comes slow and it goes so fast
         Am                      F
Well you see her when you fall asleep
                G                  Em
But to never to touch and never to keep
                         Am
Because you loved her to much
                 F          G
And you dive too deep



Chorus

                       F                       C
Well you only need the light when it s burning low
              G                       Am
Only miss the sun when it s starts to snow
               F                           C       G
Only know your love her when you let her go
                      F                        C
Only know you ve been high when you re feeling low
              G                        Am
Only hate the road when you re missin  home
               F                         C
Only know your love her when you ve let her go


                Am
And you let her go
      F     G
Ooooo ooooo oooooo
                Am
And you let her go
        F     G
Ooooooo ooooo ooooo
                Am         F    G   Em
And you let her go


Am    F    G





                       F                       C
Well you only need the light when it s burning low
              G                       Am
Only miss the sun when it s starts to snow
               F                           C       G
Only know your love her when you let her go
                      F                        C
Only know you ve been high when you re feeling low
              G                        Am
Only hate the road when you re missin  home
               F                         C
Only know your love her when you ve let her go
G
  And you let her go


                       F                       C
Well you only need the light when it s burning low
              G                       Am
Only miss the sun when it s starts to snow
               F                           C       G
Only know your love her when you let her go
                      F                        C
Only know you ve been high when you re feeling low
              G                        Am
Only hate the road when you re missin  home
               F                         C
Only know your love her when you ve let her go
G                             Am
  And you let her go

************************************

| /   slide up
| \   slide down
| h   hammer-on
| p   pull-off
| ~   vibrato
| +   harmonic
| x   Mute note
| b   Bend
| pb  Pre-bend
| br  Bend release
| pbr Pre-bend release
| brb Bend release bend

************************************
Tap to rate this tab
# A B C D E F G H I J K L M N O P Q R S T U V W X Y Z