Song name
# A B C D E F G H I J K L M N O P Q R S T U V W X Y Z

Passenger - Circles tab

-------------------------------------------------------------------------------
                             SONG NAME - Band Name
-------------------------------------------------------------------------------
Tabbed by: Melanie Gutierrez
E-mail:melaniegutierrez58@gmail.com

Tuning:

e|-------------------------------------------------------------------------|
B|-----1----------1-----0-------------0-----1---------------0----3-1-0-----|
G|-----0----0-----------0------0------------0-----0---------0--------------|
D|-------------------------------------------------------------------------|
A|-0-----0-----0------------2-----2------0-----0-----0---------------------|
E|-------------------3-------------------------------------3---------------|

e|-------------------------------------------------------------2p0---------|
B|-----1----------1-----0-----------0------0------0---------3-------3------|
G|-----0----0-----------0-----0------------0------0---------2----------2---|
D|-------------------------------------------------------------------------|
A|-0-----0-----0-----------2-----2-----2-------2-----2---0-----------------|   REPEAT
E|-------------------3-----------------------------------------------------|

************************************

| /   slide up
| \   slide down
| h   hammer-on
| p   pull-off
| ~   vibrato
| +   harmonic
| x   Mute note
| b   Bend
| pb  Pre-bend
| br  Bend release
| pbr Pre-bend release
| brb Bend release bend

************************************
Tap to rate this tab
 
# A B C D E F G H I J K L M N O P Q R S T U V W X Y Z