Song name
# A B C D E F G H I J K L M N O P Q R S T U V W X Y Z

Passengers - Let Her Go tab

Hi, this is my first tab, I hope you like it.

Capo on 7th

E|-----0--2--0------------------2-----0--2--0-------------2--2----0--2--0----------------------5--2|
B|---------------3----0--3---0------------------3----0--3---------------------3----0--3--0--3------|
G|------------------0-------------------------------2------------0-----------------0---------------|
D|-------------------------------------------------------------------------------------------------|
A|-------------------------------------------------------------------------------------------------|
E|-------------------------------------------------------------------------------------------------|

 E |------ 2--------------|
 B |--3---0---------------|
 G |--0-------------------|
 D |----------------------|
 A |----------------------|
 E |----------------------|
Tap to rate this tab
# A B C D E F G H I J K L M N O P Q R S T U V W X Y Z