Song name
# A B C D E F G H I J K L M N O P Q R S T U V W X Y Z

Passion Pit - Sleepyhead tab

-------------------------------------------------------------------------------
                             SLEEPYHEAD - Passion Pit
-------------------------------------------------------------------------------
Tabbed by: Generally Better
Email: clan_motor_pool@yahoo.com

Tuning: Standard (EADGBe)

e|-----15-17-14-15-14-12-14-12--------------------------------------------|x3
B|-----------------------------15-12--------------------------------------|
G|------------------------------------------------------------------------|
D|------------------------------------------------------------------------|
A|------------------------------------------------------------------------|
E|------------------------------------------------------------------------|

e|-----15-17-14-15-14-12-14-12----12-14----12-14----12-14-----------------|
B|-----------------------------15-------15-------15-------15--------------|
G|------------------------------------------------------------------------|
D|------------------------------------------------------------------------|
A|------------------------------------------------------------------------|
E|------------------------------------------------------------------------|

e|--------15-12----------------------------12-------12----15--------------|x2
B|-----12-------15-12----12-------------------15-12----15-----------------|
G|--------------------14----14-12-12----12--------------------------------|
D|------------------------------------------------------------------------|
A|------------------------------------------------------------------------|
E|------------------------------------------------------------------------|

Totally not played by a guitar, but I believe this to be a pretty accurate proposal for 
tune itself.  Enjoy.

| /  slide up
| \  slide down
| h  hammer-on
| p  pull-off
| ~  vibrato
| +  harmonic
| x  Mute note
===============================================================================
Tap to rate this tab
 
# A B C D E F G H I J K L M N O P Q R S T U V W X Y Z