Song name
# A B C D E F G H I J K L M N O P Q R S T U V W X Y Z

Passion Pit - Sleepyhead tab

  Song: Sleepyhead
 Album: Chunk of Change EP
Artist: Passion Pit
-------------------------------------------------------------------------------
Tabbed by: Hunter Morris
Email: hunterbmorris@gmail.com

Tuning: Standard (E A D G B e)


Intro:
e|--------------------------------||
A|--------------------------------||
D|--------------------------------||
G|--------------------------------||
B|------6~~-4~~~~------6~~-4~~~~--||
E|--4~~------------4~~------------||

Verse:
e|--16--18-16-15--16-15-13-15-13--------||
A|-------------------------------16-13--||
D|--------------------------------------||
G|--------------------------------------||
B|--------------------------------------||
E|--------------------------------------||

Pre-chorus:
e|-----------------------------------|
A|-----------------------------------|
D|--10~~-8~~~-6~~~---10~~-8~~~-6~~~--|
G|--10~~-8~~~-6~~~---10~~-8~~~-6~~~--|
B|--8~~~-6~~~-4~~~---8~~~-6~~~-4~~~--|
E|-----------------------------------|

Synthesizer Solo:
e|--16-------------------------------------------16-16--||
A|-----18-16----------------------18-16----16-----------||
D|-----------17-15b17r15-13-13----------17----17--------||
G|------------------------------------------------------||
B|------------------------------------------------------||
E|------------------------------------------------------||
Tap to rate this tab
# A B C D E F G H I J K L M N O P Q R S T U V W X Y Z