Song name
# A B C D E F G H I J K L M N O P Q R S T U V W X Y Z

Passion Pit - Take A Walk tab

            Take a Walk    by    Passion Pit

Tabbed by: Wtflolbbq

Tuning:Standard

Notes:
- Stay tuned for a Chords tab!

Intro:  (Synth1&Synth2)
e|---------------------------------------------------------------------------|
B|-2--4--5--7--5--4--4--2-0--5--4--4--2-0--5--4--4--2-0--5--4--4--2-0--------|
G|-1--3--4--6--4--4--3--3----4--4--3--3----4--4--3--3----4--4--3--3----------|
D|-2--4--6--8----------------------------------------------------------------|
A|-4--6--7--9----------------------------------------------------------------|
E|-------------4--4--2--2----4--4--2--2----4--4--2--2----4--4--2--2----------|

You can play both synth parts on one guitar! It's science!
e|-14/16-14----------14-------14/16-14----------14--------|
B|----------16-14-16----16-14----------16-14-16----16-14--|
G|--------------------------------------------------------|
D|--------------------------------------------------------|
A|--------------------------------------------------------|
E|--------------------------------------------------------|
 |
e|--------------------------------------------------------|
B|--------------------------------------------------------|
G|-11/13-11----------11-------11/13-11----------11--------|
D|----------13-11-13----13-11----------13-11-13----13-11--|
A|--------------------------------------------------------|
E|--------------------------------------------------------|

e|------------------------------------------------------|
B|-14----14-16--14-16-14------14----14-16--14-----------|
G|----16-----------------16------16-----------16-13-----|
D|--------------------------------------------------16--|
A|------------------------------------------------------|
E|------------------------------------------------------|
 |
e|------------------------------------------------------|
B|------------------------------------------------------|
G|------------------------------------------------------|
D|-11----11-13--11-13-11------11----11-13--11-----------|
A|----14-----------------14------14-----------14-11-----|
E|--------------------------------------------------14--|


Verse:(Clean Guitar)
e|---------------------------------------------------|
B|---------------------------------------------------|
G|------------------------------------------------4--|
D|-6--6--6--6--6--6--6-6-4---6--6--6--6--6--6-66-----|
A|---------------------------------------------------|
E|---------------------------------------------------|

e|---------------------------------------------------|
B|-----------------------------------------7-4-------|
G|-6--6-6--6--6--6--6-6--4---6--6-6--4--6------------|
D|---------------------------------------------------|
A|---------------------------------------------------|
E|---------------------------------------------------|


e|---------------------------------------------------|
B|---------------------------------------------------|
G|------------------------------------------------4--|
D|-6--6--6--6--6--6--6-6-4---6--6--6--6--6--6-66-----|
A|---------------------------------------------------|
E|---------------------------------------------------|

e|---------------------------------------------------|
B|-----------------------------------------7-4-------|
G|-6--6-6--6--6--6--6-6--4---6--6-6--4--6------------|
D|---------------------------------------------------|
A|---------------------------------------------------|
E|---------------------------------------------------|


e|---------------------------------------------------|
B|-9--9--9-9--9-9--9-9-9-7---9--9--9-9--9-9--9-9-9-7-|
G|---------------------------------------------------|
D|---------------------------------------------------|
A|---------------------------------------------------|
E|---------------------------------------------------|

e|---------------------------------------------------|
B|---------------7-----------------------------------|
G|-8------8-8--8----6--6--4-6---6-6-4----------------|
D|---------------------------------------------------|
A|---------------------------------------------------|
E|---------------------------------------------------|


e|---------------------------------------------------|
B|---------------------------------------------------|
G|------------------------------------------------4--|
D|-6--6--6--6--6--6--6-6-4---6--6--6--6--6--6-66-----|
A|---------------------------------------------------|
E|---------------------------------------------------|

e|---------------------------------------------------|
B|-----------------------------------------7-4-------|
G|-6--6-6--6--6--6--6-6--4---6--6-6--4--6------------|
D|---------------------------------------------------|
A|---------------------------------------------------|
E|---------------------------------------------------|


Prechorus:(Clean Guitar)
e|----------------------------------|
B|-5---4---4---2-0-5---4---4---2-0--|
G|----------------------------------|
D|----------------------------------|
A|----------------------------------|
E|----------------------------------|


Chorus:(Synth1&Synth2)
e|-14/16-14----------14-------14/16-14----------14--------|
B|----------16-14-16----16-14----------16-14-16----16-14--|
G|--------------------------------------------------------|
D|--------------------------------------------------------|
A|--------------------------------------------------------|
E|--------------------------------------------------------|
 |
e|--------------------------------------------------------|
B|--------------------------------------------------------|
G|-11/13-11----------11-------11/13-11----------11--------|
D|----------13-11-13----13-11----------13-11-13----13-11--|
A|--------------------------------------------------------|
E|--------------------------------------------------------|

e|------------------------------------------------------|
B|-14----14-16--14-16-14------14----14-16--14-----------|
G|----16-----------------16------16-----------16-13-----|
D|--------------------------------------------------16--|
A|------------------------------------------------------|
E|------------------------------------------------------|
 |
e|------------------------------------------------------|
B|------------------------------------------------------|
G|------------------------------------------------------|
D|-11----11-13--11-13-11------11----11-13--11-----------|
A|----14-----------------14------14-----------14-11-----|
E|--------------------------------------------------14--|


Verse 2

e|-----------------------------------------------|
B|----------------------4---------------------4--|
G|-4--4--4--4--4----4-4----4--4--4--4--4--4-4----|
D|-----------------------------------------------|
A|-----------------------------------------------|
E|-----------------------------------------------|

e|-----------------------------------------------|
B|--------------------4-2------------------------|
G|-4--4--4--4--4----4------3--3--3--3--3--3------|
D|-----------------------------------------------|
A|-----------------------------------------------|
E|-----------------------------------------------|


e|-----------------------------------------------|
B|----------------------4------------------------|
G|-4--4--4--4--4--4-4-4----4--4--4--4--4--4-4-4--|
D|-----------------------------------------------|
A|-----------------------------------------------|
E|-----------------------------------------------|

e|---------------------------------------------------|
B|--------------------4-2----------------------------|
G|-4--4--4--4--4----4------3--3--3--3--3-------------|
D|---------------------------------------6-6--6-6\4--|
A|---------------------------------------------------|
E|---------------------------------------------------|


e|---------------------------------------------------|
B|---------------------------------------------------|
G|------------------------------------------------4--|
D|-6--6--6--6--6--6--6-6-4---6--6--6--6--6--6-66-----|
A|---------------------------------------------------|
E|---------------------------------------------------|

e|---------------------------------------------------|
B|-----------------------------------------7-4-------|
G|-6--6-6--6--6--6--6-6--4---6--6-6--4--6------------|
D|---------------------------------------------------|
A|---------------------------------------------------|
E|---------------------------------------------------|


e|---------------------------------------------------|
B|---------------------------------------------------|
G|------------------------------------------------4--|
D|-6--6--6--6--6--6--6-6-4---6--6--6--6--6--6-66-----|
A|---------------------------------------------------|
E|---------------------------------------------------|

e|---------------------------------------------------|
B|-----------------------------------------7-4-------|
G|-6--6-6--6--6--6--6-6--4---6--6-6--4--6------------|
D|---------------------------------------------------|
A|---------------------------------------------------|
E|---------------------------------------------------|


Prechorus 2:(Drums, Bass & A quiet synth part) Bass is tabbed here
e|------------------------------------------------------------------|
B|------------------------------------------------------------------|
G|------------------------------------------------------------------|
D|------------------------------------------------------------------|
A|------------------------------------------------------------------|
E|-4-4-4-4-4-4-4-4-2-2-2-2-2-2-2-2-4-4-4-4-4-4-4-4-2-2-2-2-2-2-2-2--|


Chorus:(Synth1&Synth2)
e|-14/16-14----------14-------14/16-14----------14--------|
B|----------16-14-16----16-14----------16-14-16----16-14--|
G|--------------------------------------------------------|
D|--------------------------------------------------------|
A|--------------------------------------------------------|
E|--------------------------------------------------------|
 |
e|--------------------------------------------------------|
B|--------------------------------------------------------|
G|-11/13-11----------11-------11/13-11----------11--------|
D|----------13-11-13----13-11----------13-11-13----13-11--|
A|--------------------------------------------------------|
E|--------------------------------------------------------|

e|------------------------------------------------------|
B|-14----14-16--14-16-14------14----14-16--14-----------|
G|----16-----------------16------16-----------16-13-----|
D|--------------------------------------------------16--|
A|------------------------------------------------------|
E|------------------------------------------------------|
 |
e|------------------------------------------------------|
B|------------------------------------------------------|
G|------------------------------------------------------|
D|-11----11-13--11-13-11------11----11-13--11-----------|
A|----14-----------------14------14-----------14-11-----|
E|--------------------------------------------------14--|

Interlude(Synth)
e|--------------------------------------------|
B|--------------------------------------------|
G|-1---3---4-----1---3---4-----1---3---4---6--|
D|-2---4---6-----2---4---6-----2---4---6---8--|
A|-4---6---7-----4---6---7-----4---6---7---9--|
E|--------------------------------------------|

e|---------------------------------------------------------|
B|-5--4--4--2-0--5--4--4--2-0--5--4--4--2-0--5--4--4--2-0--|
G|-4--4--3--3----4--4--3--3----4--4--3--3----4--4--3--3----|
D|---------------------------------------------------------|
A|---------------------------------------------------------|
E|-4--4--2--2----4--4--2--2----4--4--2--2----4--4--2--2----|


Chorus:(Synth1&Synth2)
e|-14/16-14----------14-------14/16-14----------14--------|
B|----------16-14-16----16-14----------16-14-16----16-14--|
G|--------------------------------------------------------|
D|--------------------------------------------------------|
A|--------------------------------------------------------|
E|--------------------------------------------------------|
 |
e|--------------------------------------------------------|
B|--------------------------------------------------------|
G|-11/13-11----------11-------11/13-11----------11--------|
D|----------13-11-13----13-11----------13-11-13----13-11--|
A|--------------------------------------------------------|
E|--------------------------------------------------------|

e|------------------------------------------------------|
B|-14----14-16--14-16-14------14----14-16--14-----------|
G|----16-----------------16------16-----------16-13-----|
D|--------------------------------------------------16--|
A|------------------------------------------------------|
E|------------------------------------------------------|
 |
e|------------------------------------------------------|
B|------------------------------------------------------|
G|------------------------------------------------------|
D|-11----11-13--11-13-11------11----11-13--11-----------|
A|----14-----------------14------14-----------14-11-----|
E|--------------------------------------------------14--|



That's it! Leave comments/corrections below.
I'll make sure to update the tab as I see fit and will definitely
give credit where credit is due.

Suggestions? Leave a comment on my page.

As always, don't forget to rate/comment if this tab helped you!

************************************
Tap to rate this tab
# A B C D E F G H I J K L M N O P Q R S T U V W X Y Z