Song name
# A B C D E F G H I J K L M N O P Q R S T U V W X Y Z

Passion Pit - To Kingdom Come tab

The other tab on her says that the song is in E and A, i think that is wrong so i 
decided to put the version i though is correct up. The other picking parts seem right in the 
other tabs so i am not putting them in here.

Main verse: Strumming

     ..... That's a frosty way to speak ...
     ..... To tell me how to live next to your potpourri...
     ..... All this talking pulls my teeth ...
     ..... I believed in you, so you'd believe in...

e|---4----------------------2------------------------------------------------|
B|---4----------------------2------------------------------------------------|
G|---4----------------------2------------------------------------------------|
D|---6----------------------4------------------------------------------------|
A|---6----------------------4------------------------------------------------|
E|---4----------------------2------------------------------------------------|

Main Chorus: Play the notes similar to how it is sung.


    Me.  I  cried  out "God!"   You dared me in the

e|--7-7--4--7-7----4----7-7-----4---7-----9--4--5--------------------------|
B|--7-7--4--7-7----4----7-7-----4---7-----9--4--5--------------------------|
G|--8-8--4--8-8----4----8-8-----4---8-----9--4--6--------------------------|
D|--9-9--6--9-9----6----9-9-----6---9-----11-6--7--------------------------|
A|--9-9--6--9-9----6----9-9-----6---9-----11-6--7--------------------------|
E|--7-7--4--7-7----4----7-7-----4---7-----9--6--5--------------------------|

   dark. I  felt  a    hush  fall quietly  from my

e|-7-7--4---7-7---4----7-7---4----7----9---4----5--------------------------|
B|-7-7--4---7-7---4----7-7---4----7----9---4----5--------------------------|
G|-8-8--4---8-8---4----8-8---4----8----9---4----6--------------------------|
D|-9-9--6---9-9---6----9-9---6----9----11--6----7--------------------------|
A|-9-9--6---9-9---6----9-9---6----9----11--6----7--------------------------|
E|-7-7--4---7-7---4----7-7---4----7----9---6----5--------------------------|

Now back to the strumming pattern

    spark. So now I hide in piles or princely orange peels ....
    It feels the way you told me how it'd always feel ....

e|--4----------------------2--------------------------------------------------|
B|--4----------------------2--------------------------------------------------|
G|--4----------------------2--------------------------------------------------|
D|--6----------------------4--------------------------------------------------|
A|--6----------------------4--------------------------------------------------|
E|--4----------------------2--------------------------------------------------|

Those are the chords.You should be able to figure it out from there.
Tap to rate this tab
# A B C D E F G H I J K L M N O P Q R S T U V W X Y Z