Song name
# A B C D E F G H I J K L M N O P Q R S T U V W X Y Z

Passion - Already In Love tab

Help us improve GuitareTab! Take a short survey!
----------------------------------------------------------------------------
			     Already In Love - Passion
----------------------------------------------------------------------------
Tabbed by: Warlocked200
Email: Sport_jock15@yahoo.com

You don't have to play in half-step down. This tab shows how it can be played without 
half-step. If you want to play it half-step play one fret up. You could add the slaps 
you want them. I put them where i slap.

Legend:
p = pull off
h = hammer on
/ = slide up
\ = slide down
~ = Let ring
Riff 1
e|---------------------x--------------------------x----x----------|
B|------5--4h5p4--4----x-3-2~-------------------2-x----x----------|
G|----------------4--4-x-3-2~------2h4p2-------2--x--2-x----------|
D|----6-----------4--4-x-3-2~------------2----2---x--2-x----------|
A|--4------------------x--------2-----------------x----x----------|
E|----------------4----x-3-2~-------------2-2-----x-2--x----------|
Riff 2
e|-------x-------------2h4~--4~---2h4~----------------------------|
B|-----5-x---4~---3-2------------2~----2~-------------------------|
G|-----4-x---4~---3-2---------------------------------------------|
D|-----6-x---4~---3-2---------------------------------------------|
A|--/4---x--------------------------------------------------------|
E|-------x-0-4~---3-2---------------------------------------------|
Riff 3
e|-----x-4x---------x---------------------------------------------|
B|-----x-5x----4--4-x-1-2~-2----2-2-------------------------------|
G|-----x--x----4--4-x-1-2~-2----2-2----2h4p2----------------------|
D|----6x--x----4--4-x-1-2~-2----2-2----------2--------------------|
A|--4--x--x---------x----------------2---------4------------------|
E|-----x--x--4-4----x-1-2~-2--2-2---------------------------------|
Riff 4
e|-----4-x--------x------------7/9-9-9\7--------------------------|
B|-------x---4--4-x-3-2~---2---7/9--9~--7-------------------------|
G|----4--x---4--4-x-3-2~---2--------------------------------------|
D|---6---x---4--4-x-3-2~---2--------------------------------------|
A|--4----x--------x-----------------------------------------------|
E|-------x-4-4----x-3-2~--2---------------------------------------|
Riff 5 (when he says "I know we spent hours on the phone...")
e|-----4----------------------------------------------------------|
B|--------4--3-2-2---2/-------------------------------------------|
G|----4---4--3-2-2---2/-------------------------------------------|
D|---6----4--3-2-2---2/-------------------------------------------|
A|--4-------------------------------------------------------------|
E|--------4--3-2-2--2---------------------------------------------|

============================================================================
Related for Already In Love tab