Song name
# A B C D E F G H I J K L M N O P Q R S T U V W X Y Z

Passion - Knees To The Earth tab

I was listening to the song.
The intro is definitely correct, the verses are close, but I improvised a lot...
I was just messing around fingerpicking, and since there aren't all too many tabs for 
one (although there are chords)
this is something you could play that fits, and is fairly easy.

-Michelle

Intro:
e|----------------|-----------------|
B|------0-------0-|------0-------0--|
G|----2-------2---|----2-------2----|
D|--2-------2-----|--2-------2------|
A|0-------0-------|0-------0--------|
E|----------------|-----------------|

Verse 1:

"Wonderful Savior..."
e|----------------|-----------------|------0--------0--|----------------|
B|------0-------0-|------0-------0--|----3--------3----|------0-------0-|
G|----2-------2---|----2-------2----|--2--------2------|----1-------1---|
D|--2-------2-----|--2-------2------|0--------0--------|--2-------2-----|
A|0-------0-------|2----------------|------------------|2-------2-------|
E|----------------|--------2--------|------------------|----------------|

"I will remember always..."
e|----------------|-----------------|------0--------0--|----------------|
B|------0-------0-|------0-------0--|----3--------3----|------0-------0-|
G|----2-------2---|----2-------2----|--2--------2------|----1-------1---|
D|--2-------2-----|--2-------2------|0--------0--------|--2-------2-----|
A|0-------0-------|2----------------|------------------|2-------2-------|
E|----------------|--------2--------|------------------|----------------|

"Wonderful Savior..."
e|----------------|-----------------|------0--------0--|----------------|
B|------0-------0-|------0-------0--|----3--------3----|------0-------0-|
G|----2-------2---|----2-------2----|--2--------2------|----1-------1---|
D|--2-------2-----|--2-------2------|0--------0--------|--2-------2-----|
A|0-------0-------|2----------------|------------------|2-------2-------|
E|----------------|--------2--------|------------------|----------------|

"So I will embrace You..."
e|----------------|-----------------|------0--------0--|----------------|
B|------0-------0-|------0-------0--|----3--------3----|------0-------0-|
G|----2-------2---|----2-------2----|--2--------2------|----1-------1---|
D|--2-------2-----|--2-------2------|0--------0--------|--2-------2-----|
A|0-------0-------|2----------------|------------------|2-------2-------|
E|----------------|--------2--------|------------------|----------------|

Chorus:

"Be blessed..."
e|--------|-0-----0-|---------|----------|
B|----0---|---3-----|-0-----0-|-0-----0--|
G|2-----2-|-----2---|---1-----|---2------|
D|--2-----|-0-------|-----2---|-----2----|
A|--------|---------|-2-------|-0--------|
E|2-------|---------|---------|----------|

"Be treasured..."
e|--------|-0-----0-|---------|----------|
B|----0---|---3-----|-0-----0-|-0-----0--|
G|2-----2-|-----2---|---1-----|---2------|
D|--2-----|-0-------|-----2---|-----2----|
A|--------|---------|-2-------|-0--------|
E|2-------|---------|---------|----------|

"I owe my life..."
e|--------|-0-----0-|---------|----------|
B|----0---|---3-----|-0-----0-|-0-----0--|
G|2-----2-|-----2---|---1-----|---2------|
D|--2-----|-0-------|-----2---|-----2----|
A|--------|---------|-2-------|-0--------|
E|2-------|---------|---------|----------|

"Here I am..."
e|--------|-0-----0-|---------|----------|
B|----0---|---3-----|-0-----0-|-0-----0--|
G|2-----2-|-----2---|---1-----|---2------|
D|--2-----|-0-------|-----2---|-----2----|
A|--------|---------|-2-------|-0--------|
E|2-------|---------|---------|----------|

Verse 2&3:

"Beautiful Jesus..."
e|----------------|-----------------|------0--------0--|----------------|
B|------0-------0-|------0-------0--|----3--------3----|------0-------0-|
G|----2-------2---|----2-------2----|--2--------2------|----1-------1---|
D|--2-------2-----|--2-------2------|0--------0--------|--2-------2-----|
A|0-------0-------|2----------------|------------------|2-------2-------|
E|----------------|--------2--------|------------------|----------------|

"Knees to the earth..."
e|----------------|-----------------|------0--------0--|----------------|
B|------0-------0-|------0-------0--|----3--------3----|------0-------0-|
G|----2-------2---|----2-------2----|--2--------2------|----1-------1---|
D|--2-------2-----|--2-------2------|0--------0--------|--2-------2-----|
A|0-------0-------|2----------------|------------------|2-------2-------|
E|----------------|--------2--------|------------------|----------------|

"Beautiful Jesus..."
e|----------------|-----------------|------0--------0--|----------------|
B|------0-------0-|------0-------0--|----3--------3----|------0-------0-|
G|----2-------2---|----2-------2----|--2--------2------|----1-------1---|
D|--2-------2-----|--2-------2------|0--------0--------|--2-------2-----|
A|0-------0-------|2----------------|------------------|2-------2-------|
E|----------------|--------2--------|------------------|----------------|

"So let me embrace You..."
e|----------------|-----------------|------0--------0--|----------------|
B|------0-------0-|------0-------0--|----3--------3----|------0-------0-|
G|----2-------2---|----2-------2----|--2--------2------|----1-------1---|
D|--2-------2-----|--2-------2------|0--------0--------|--2-------2-----|
A|0-------0-------|2----------------|------------------|2-------2-------|
E|----------------|--------2--------|------------------|----------------|

Chorus x1
Verse 2 (Which is also three)
Chorus x2
Tap to rate this tab
# A B C D E F G H I J K L M N O P Q R S T U V W X Y Z