Song name
# A B C D E F G H I J K L M N O P Q R S T U V W X Y Z

Passion - Lemonade tab

Jeremy Passion-Lemonade
Transcribed by BigDrew

I have seen a bunch of bad tabs on this song and it upset me quite a bit.
Sooo I decided to make my own. After all, how could you do that to such a beautiful tune!

So I am about 99% sure this is how the song goes, notice that when you listen, the last 
chord is diminished and does not resolve(mine is correct).
No idea what the chord names are (does it really matter though?)
Guitar: Capo 6
Ukelele: Standard
h: hammer on
x: do not play

The four chords are as follows:

e-----4------2------2------1h4----|
b-----2------1------0------3------|
g-----2------2------1------4------|
d-----2------1------2------0------|
a-----x------x------x------x------|
E-----x------x------x------x------|

When he slows down towards the end and does the faster chords it is (to the best of my knowledge):

*my eyes, Shes ex---a--ctly whaaaat I neeeeeeeeeeyeeeeeeeeeaaaahhhhhh
e-----1-------4-----4---2-------7--5---4---------------444444444----|
b-----3-------3-----2---2-------5--5---5---------------222222222----|
g-----4-------4-----2---2-------5--5---6---------------333333333----|
d-----0-------0-----2---2-------5--5---4---------------444444444----|
a-----x-------x-----x---x-------x--x---x---------------xxxxxxxxx----|
E-----x-------x-----x---x-------x--x---x---------------xxxxxxxxx----|

Finish out with the first three chords (4222xx)(1212xx)(2012xx)...KA-BLAM, PURE SEX OF 
THE EARS

There you have it folks. Since this was first and foremost a ukelele song I omitted the 
a and E strings. If you want just play 0-2-2-2
on the a string for the main chords.

FINALLY:
*******Play this to your significant other and get guaranteed lovin'!******
Tap to rate this tab
 
# A B C D E F G H I J K L M N O P Q R S T U V W X Y Z