Song name
# A B C D E F G H I J K L M N O P Q R S T U V W X Y Z

Passion - So Sick tab

-------------------------------------------------------------------------------
                             So Sick - Passion
-------------------------------------------------------------------------------
Tabbed by:Martin
E-mail: gking7015@yahoo.com
This is my first tab it seems pretty accurate, if there are any recommendations
please leave a comment. 

TIP: Use your thumb to press the 3rd Fret on the E string.
You can repeat this pattern through out the whole song or play them as chords.

Tuning: STANDARD Capo 4th Fret
e|----------------2-----------------------------------------------------------|
B|-----2---------3-3------3-------2----2--------------------------------------|
G|----2---2-----2--------0-0-----0----0---------------------------------------|
D|---0---------0--------0-------2----2----------------------------------------|
A|--2------------------2-------0----1-----------------------------------------|
E|----------3-----------------------------------------------------------------|


e|---------------2------------------------------------------------------------|
B|----2---------3-3------3-------2----2---------------------------------------|
G|---2---2-----2--------0-0-----0----0----------------------------------------|
D|--0---------0--------0-------2----2-----------------------------------------|
A|-2------------------2-------0----1------------------------------------------|
E|----------3-----------------------------------------------------------------|


e|---------------------------------------------------------------------------|
B|--2h3--2h3--2h3--2---------------------------------------------------------|
G|-0----0----0----0----------------------------------------------------------|
D|---------------------------------------------------------------------------|
A|---------------------------------------------------------------------------|
E|---------------------------------------------------------------------------|



************************************

| /   slide up
| \   slide down
| h   hammer-on
| p   pull-off
| ~   vibrato
| +   harmonic
| x   Mute note
| b   Bend
| pb  Pre-bend
| br  Bend release
| pbr Pre-bend release
| brb Bend release bend

************************************
Tap to rate this tab
 
# A B C D E F G H I J K L M N O P Q R S T U V W X Y Z