Song name
# A B C D E F G H I J K L M N O P Q R S T U V W X Y Z

Pat 182 - Ode To Joy tab

----------------------------------------------------------------------
                       ODE TO JOY - Pat 182
----------------------------------------------------------------------
By: Pat Heath

Guitar 1
e|-0-0-1-3-3-1-0---------0-----0-0-1-3-3-1-0---------0---------------|
B|---------------3-1-1-3---3-3---------------3-1-1-3---1-1-----------|
G|-------------------------------------------------------------------|
D|-------------------------------------------------------------------|
A|-------------------------------------------------------------------|
E|-------------------------------------------------------------------|

Guitar 2
e|-0-------3-------0-------1-------0-------3-------1-----------------|
B|-1-------3-------1-------2-------1-------3-------2-----------------|
G|-2-------0-------2-------0-------2-------0-------0-----------------|
D|-0-------0-------0-------3-------0-------0-------3-----------------|
A|-3-------2-------3-------x-------3-------2-------x-----------------|
E|-0-------3-------0-------x-------0-------3-------x-----------------|


======================================================================
Tap to rate this tab
# A B C D E F G H I J K L M N O P Q R S T U V W X Y Z