Song name
# A B C D E F G H I J K L M N O P Q R S T U V W X Y Z

Pat 182 - Underneath tab

----------------------------------------------------------------------
		        Misuncinate - Pat 182
----------------------------------------------------------------------

By: Pat Heath

  Intro
1:---------------------------------------------|
2:---------------------------------------------|
3:---------------------------------------------|
4:---------------------------------------------|
5:-------------2-2----1-1-1-0-----0-0----------|
6:--0-0--3-3-------3-----------3------3-2------|  4x 


Main Riff

 Please don't misuncinate my name... Because its MYYYY Name!!
e|-10--10--10--10--10--10--10--10--10--10----------------------------|
B|--0---0---0---0---0---0---0---0---0---0----------------------------|
G|--0---0---0---0---0---0---0---0---0---0----------------------------|
D|--0---0---0---0---0---0---0---0---0---0----------------------------|
A|--9---9---9---9---9---9---9---9---9---9----------------------------|
E|-10--10--10--10--10--10--10--10--10--10----------------------------|
And I'll choose what I want to be Called, Full of hair or bald is 
e|-10--10--10--10--10--10--10--10--10--10----------------------------|
B|--0---0---0---0---0---0---0---0---0---0----------------------------|
G|--0---0---0---0---0---0---0---0---0---0----------------------------|
D|--0---0---0---0---0---0---0---0---0---0----------------------------|
A|--9---9---9---9---9---9---9---9---9---9----------------------------|
E|-10--10--10--10--10--10--10--10--10--10----------------------------|

Going to choose my name!

1:---------------------------------------------|
2:---------------------------------------------|
3:---------------------------------------------|
4:---------------------------------------------|
5:-------------2-2----1-1-1-0-----0-0----------|
6:--0-0--3-3-------3-----------3------3-2------|  4x 

e|-10--10--10--10--10--10--10--10--10--10----------------------------|
B|--0---0---0---0---0---0---0---0---0---0----------------------------|
G|--0---0---0---0---0---0---0---0---0---0----------------------------|
D|--0---0---0---0---0---0---0---0---0---0----------------------------|
A|--9---9---9---9---9---9---9---9---9---9----------------------------|
E|-10--10--10--10--10--10--10--10--10--10----------------------------|


1:---------------------------------------------|
2:---------------------------------------------|
3:---------------------------------------------|
4:---------------------------------------------|
5:-------------2-2----1-1-1-0-----0-0----------|
6:--0-0--3-3-------3-----------3------3-2------|  4x 


100% tabbed corectly.. Pat 182 is dope. any probs presdentpat@hotmail.com
Tap to rate this tab
# A B C D E F G H I J K L M N O P Q R S T U V W X Y Z