Song name
# A B C D E F G H I J K L M N O P Q R S T U V W X Y Z

Pat 182 - If You Run Make Sure You Can Hide tab

----------------------------------------------------------------------
	IF YOU RUN MAKE SURE YOU CAN HIDE - Pat 182          
----------------------------------------------------------------------

by pat Heath
Verse:

Don't hide and if you're fat, and make sure you can run, from your mom,
from your mom.
e|-5-5-5-5-5-6-6-6-6-6-5-5-5-5-5-6-6-6-6-6-5-5-5-5-5|
B|-6-6-6-6-6-5-5-5-5-5-6-6-6-6-6-5-5-5-5-5-6-6-6-6-6|
G|-5-5-5-5-5-6-6-6-6-6-5-5-5-5-5-6-6-6-6-6-5-5-5-5-5|
D|--------------------------------------------------|
A|--------------------------------------------------|
E|--------------------------------------------------|
Chorus:
If you run, i will run after you, anywhere that you point me too if you need,
need me to throw you i will.
e|--------------------------------------------------------------------
B|-7-7-7-7-7-7-7-7-7-7-7-7-7-7-7-7-7-7-7-7-7-7-7-7-7-7-7-7-7|
G|-7-7-7-7-7-7-7-7-7-7-7-7-7-7-7-7-7-7-7-7-7-7-7-7-7-7-7-7-7|
D|-5-5-5-5-5-5-5-5-5-5-5-5-5-5-5-5-5-5-5-5-5-5-5-5-5-5-5-5-5|
A|----------------------------------------------------------|
E|----------------------------------------------------------|

this is correct
trust me presdentpat@hotmail.com
Tap to rate this tab
# A B C D E F G H I J K L M N O P Q R S T U V W X Y Z