Song name
# A B C D E F G H I J K L M N O P Q R S T U V W X Y Z

Pat 182 - Ilan tab

----------------------------------------------------------------------
			   ILAN - Pat 182                            
----------------------------------------------------------------------
By:pat Heath
Tuning-Turn everything down a half step. Except for high 'e'

Ilan is a little woooo man that i know, i used to blow.
e|-2-2-----2-2-----2-2-----2-|
3B|-3---3---3---3---3--3---3-|
4G|-4-----4-4-----4-4----4-4-|
D|---------------------------|
A|---------------------------|
E|---------------------------|

I to the izz L, A to the Izz N what does that spell? ILAN!

e|---------------------------------------------------|
B|---------------------------------------------------|
G|---------------------------------------------------|
D|-7-7-7-7-7-7-7-7-7-5-5-5-5-5-5-5-5-5-3-3-3-3-3-3-3-|
A|-7-7-7-7-7-7-7-7-7-5-5-5-5-5-5-5-5-5-3-3-3-3-3-3-3-|
E|-9-9-9-9-9-9-9-9-9-7-7-7-7-7-7-7-7-7-5-5-5-5-5-5-5-|

======================================================================
Tap to rate this tab
# A B C D E F G H I J K L M N O P Q R S T U V W X Y Z