Song name
# A B C D E F G H I J K L M N O P Q R S T U V W X Y Z

Pat Benatar - Heartbreaker tab

-Please rate this well, it was hard as hell to tab.

-Solo is in the key of F

-Legend:    h = hammer on
            p = pull off
            / = slide up
            \ = slide down
            v = vibrate
            b = bend
            r = release bend
           ...= palm mute
           (_)= ghost note

*****Geraldo uses artificial harmonics like crazy
     during this solo. The easiest way to play them
     all is to learn to play this solo with your pick
     constantly in the artificial harmonic position.
     Im not going to bother indicating every note that
     is an a.h., youll have to figure that out by yourself
     (it should be pretty easy to do if you listen
     closely to the song.)


SOLO:

e|-----------------------|--------|
B|--4h6--6vvv-6vvv-6vvv--|--6vvv--| <--pick steadily for a while,
G|-----------------------|--------|    using vibrato + becoming
D|-----------------------|--------|    increasingly more harmonic
A|-----------------------|--------|
E|-----------------------|--------|

|-------------------------(4)h6--6--6vvv--|-----(4)h6--6--6--|
|--4h6--6--6vvv--(4)h6-4------------------|--4---------------|
|-----------------------------------------|------------------|
|-----------------------------------------|------------------|
|-----------------------------------------|------------------|
|-----------------------------------------|------------------|

|----------------------------------------------|
|----------------------------------------------|
|--(1)h3--1--(1)h3--1--3b--3--(1)h3p1p0--------|
|----------------------------------------3vvv--|
|----------------------------------------------|
|----------------------------------------------|

|----------------------------------------------|
|----------------------------------------------|
|---------------------------6brvvv-------------|
|--------------1-3-5-3-5-6--6brvvv--3p1--3vvv--|
|--------1-3-4---------------------------------|
|--1-3-4---------------------------------------|
   ..... ..... ...........

|------------------------------|---------------------------|
|------------------------------|---------------------------|
|-------3-3-3-------3-------3--|--(1)h3--1-----3b--1-1vvv--|
|-------3-3-3-------3-------3--|------------3--------------|
|--1-1---------1-1-----1-1-----|---------------------------|
|------------------------------|---------------------------|
   ...         ...     ...

|---------------------------------------|
|---------------------------------------|
|--3b-3bvvv--3brp1--3b-3b-3bvvv--3brp1--|
|---------------------------------------|
|---------------------------------------|
|---------------------------------------|

|------------------------------------------------------------|
|------------------------------------------------------------|
|--(1)h3p1--(1)h3p1--(1)h3p1--(1)h3p1p0----------------------|
|----------------------------------------------3vvv----/15\--|
|------------------------------------------------------------|
|----------------------------------------1*------------------|
                                          ^dive w/ bar

|--11b-11b-11b-11b-11b-11b-11b-11b-11b--11b--9--11--11bvvv---11br\--|
|--11b-11b-11b-11b-11b-11b-11b-11b-11b------------------------------|
|-------------------------------------------------------------------|
|-------------------------------------------------------------------|
|-------------------------------------------------------------------|
|-------------------------------------------------------------------|

|--------------------------------------------------|
|--------------------------------------------------|
|--------------------------------------------------| <-played pretty
|--------------------------------------------------|   fast
|------------------------10-11-13-15-10-11-13-15---|
|--9-11-13-15-9-11-13-15---------------------------|
   ..................... .......................

|---------------------------------------------------|
|---------------------------------------------------|
|--------------------------10-12-13-15-12-13-15-17--| <-here too
|--10-11-13-15-11-13-15-17--------------------------|
|---------------------------------------------------|
|---------------------------------------------------|

|-------------------------------|-----------------|
|------------13vvv-13vvv-13vvv--|--16bvvv-16bvvv--| <-pick steadily,
|--13h15h17---------------------|-----------------|   repeat as needed
|-------------------------------|-----------------|   while getting
|-------------------------------|-----------------|   progressively
|-------------------------------|-----------------|   faster

|------------------------------------------------------------------|
|--16\-------------------------------------------------------------|
|-------(1)h3--(1)h3--(1)h3--(1)h3/5\3p1h3p1p0---------------------|
|-----------------------------------------------3p1----------------|
|----------------------------------------------------4p3p1---------|
|-----------------------------------------------------------4p3p1--|

|--------------|-----|
|--------------|-----|
|--------------|-----|
|--3vvv--1vvv--|--3--|
|--------------|--3--|
|--------------|--1--|


There you have it. Like i said, please rate it high, since it
was a bitch to tab. Cool solo though

until next tab, Brian Z
Tap to rate this tab
# A B C D E F G H I J K L M N O P Q R S T U V W X Y Z