Song name
# A B C D E F G H I J K L M N O P Q R S T U V W X Y Z

Pat Benatar - Hit Me With Your Best Shot tab

Hit me with your best shot - Pat Benatar

This is the solo tab I figured I'd post it to the site
considering the solo already here isn't great.

Secondly I'm going to admit i didn't ear this
I grabbed it from Power Tab.

e-----11-14-11-12----11----------|
b---12------------14----12-14-12-|
g-13-----------------------------|
d--------------------------------|
a--------------------------------|
e--------------------------------|

e--------------------0-|
b-12~----------------0-|
g----9-9-9\8-8-8-8\6---|
d----------------------|
a----------------------|
e----------------------|

Trills!

e--------------------------------|
b-0h20-0h4p0-0h5p0-0h7p0-7-12/0--|
g--------------------------------|
d--------------------------------|
a--------------------------------|
e--------------------------------|

e---------------7-------------------7-0-----|
b-5-7-5-7-5-7-5---5-7-5-7-5-7-5-7-5-----7-0-|
g-------------------------------------------|
d-------------------------------------------|
a-------------------------------------------|
e-------------------------------------------|

e-------------------------------|
b-12-11-10-9-9-9~---------------|
g---------------------6B(8)R-4*-|
d-------------------------------|  (you don't have to but i add a pinch here)
a-------------------------------|
e-----------------7-6-----------|

e-14----14----14---14---14----14-----------|
b------------------------------------------|
g----16-----16---16---16---16----16~16-----|
d--------------------------------------16/-|
a------------------------------------------|
e------------------------------------------|

e--------------------------------|
b--------------------------------|
g----9~-----9~----9-9-9----------|
d-/7----/7-----9/-9-9-9----------|
a-----------------------7-7------|
e---------------------------7/-0-|

e--------------------------------------------|
b---------15B(17)rB---------000022224444555~-|
g-4B(6)rB-----------2B(4)rB------------------|
d--------------------------------------------|
a--------------------------------------------|
e--------------------------------------------|


have fun folks
Tap to rate this tab
# A B C D E F G H I J K L M N O P Q R S T U V W X Y Z