Pat Benatar - Hit Me With Your Best Shot tab

Okay, this is the rhythm guitar part, but its still fun to play, especially with 
the song.  I didnt learn the actual solo, but the little bridge is still fun to do.

/-slide
*-palm mute
b-slight bend, listen for it

Intro/Chorus Riff:
e---------------|------------------------|
B---------------|------------------------|
G---------------|------------------------|
D-9-----6-6-4-4-|-/9-----6-6-4-4-2-2-4-4-|
A-7-7-7-4-4-2-2-|-/7-7-7-4-4-2-2-0-0-2-2-|
E---5-5---------|----5-5-----------------|  do this twice

Verse:
e-----4-------------------------------|
B-----5-------------------------------|
G-----6-2-4-4-4-4-4-|-4-4-4-4-4-4-4-4-|
D-9-9-6-2-4-4-4-4-4-|-4-4-4-4-4-4-4-4-|
A-7-6-4-0-2-2-2-2-2-|-2-2-2-2-2-2-2-2-|
E-------------------|-----------------|  do this twice
            * * * *   * * * * * 
here, there are some full on chords

Replay Intro/Chorus riff.

Replay Verse.

Replay Intro/Chorus.

During lead solo, play verse, followed by chorus.

Bridge:
e------------------|------------------|--------------|
B----------8-------|------------------|--------------|
G-9-----9----9---9-|-6--------------6-|-4------------|
D-----9--------7---|---9---9----4-6---|---4------4---|
A---7--------------|-----7----4-------|-----2--2---2-|
E------------------|------------------|--------------|

e-------|
B-------|
G-4-----|
D---4---|
A-----2-|
E-------|  two notes get squeezed in, theyre just 4 and 6 on A.  Then, repeat the bridge.

Replay Intro/Chorus, then this happens:
e-------------------|--------------------|
B-------------------|--------------------|
G-------------------|--------------------|
D-6-6-4-4-2-2-0--/9-|------6-6-4-4-2-2-4-|
A-4-4-2-2-0-0-2--/7-|--7-7-4-4-2-2-0-0-2-|
E-------------------|--5-5---------------|  repeat four times, I think
  play the 2 chord once, slide to 7, then pause a little before the 5 on E

Little Ending bit:
e---------------|-0~~0-|
B---------------|-3~~3-|
G---------------|-1~~1-|
D---------------|-2~~2-|
A---------------|-2~~2-|
E-2b-2b-2b-2b-0-|-0~~0-|
Tap to rate this tab
 
# A B C D E F G H I J K L M N O P Q R S T U V W X Y Z