Pat Benatar - Hit Me With Your Best Shot tab

This is my very first tab (: I hope you all enjoy!!!!



e-----11-14-11-12-14-------------|
b---12---------------14-12~------|
g-13-----------------------------|
d--------------------------------|
a--------------------------------|
e--------------------------------|

e--------------------------|
b--------------------------|
g----5-5-5\4-4-4\3-3-3\0---|
d--------------------------|
a--------------------------|
e--------------------------|


e--------------------------------|
b-0h2(:4)-0h4(:4)-0h5(:4)-5/8----|
g--------------------------------|
d--------------------------------|
a--------------------------------|
e--------------------------------|

e-------------------------------------------|
b-5-7-5-7-5-7-5---5-7-5-7-5-7-5-7-5---------|
g-------------------------------------------|
d-------------------------------------------|
a-------------------------------------------|
e-------------------------------------------|


e-------------------------------|
b-12-12-11-9~-------------------|
g-------------------------------|
d-------------------------------|  
a-------------------------------|
e-----------------6b-4----------|

e-14----14----14---14---14----14-----------|
b------------------------------------------|
g----16-----16---16---16---16----16--------|
d--------------------------------------16/-|
a------------------------------------------|
e------------------------------------------|

e--------------------------------|
b--------------------------------|
g----9~-----9~-------9------9----|
d-6h7----6h7-----6h7----6h7------|
a--------------------------------|
e--------------------------------|

e--------------------------------------------|
b---------15\17)---------000022224444555~----|
g-4\6)-----------2\4)------------------------|
d--------------------------------------------|
a--------------------------------------------|
e--------------------------------------------|
Tap to rate this tab
 
# A B C D E F G H I J K L M N O P Q R S T U V W X Y Z