Song name
# A B C D E F G H I J K L M N O P Q R S T U V W X Y Z

Pat Kirtley - Grandpas Lullabuy tab

                              Grandpa's Lullabuy                                
This what I got from listening. Write to me at Fred_eminor@yahoo.co.in and comments on it.

Track 1
       E  S  S E  E  E  E  E  E     E  E  E    E  E  E  E  E   
E||--2g4--2p-0-------------0--0--|-------------------0--------|
B||-------L--L-2--------2--------|-----2-----0g2-----2-----0--|
G||---------------4--------------|-----2--2----2-----------2--|
D||------------------------------|--------L----L--4--L--4--L--|
A||------------------------------|--0--L--L----L--L--L--L--L--|
E||----0--L--L-L--L--4--L--L--L--|----------------------------|


    E  S  S E  E  E  E  E   E     E  E  E  E  E  E  E  E   
--2g4--2p-0--------------------|--------4--2--------------|
----0--L--L-2--------2--4h--5--|-----2--------------0-----|
---------------4---------------|-----2-----------2--------|
-------------------------------|--------------------------|
-------------------------------|--0--L--L--L--2--L--L--2--|
----0--L--L-L--L--4--L--L---L--|--------------------------|


    E   E  E  E  E    E   E  E     E  E  E  E  E  E  E  E   
--2g4S--2--0--0-----2g4p--2--0--|-----------------0--------|
--------------------------------|-----2-----0--------------|
--2g4S--2--1--1-----2g4p--2--1--|--------2-----------------|
--------------------------------|--------------------------|
-----------------4----L---L-----|--0-----------2--------0--|
----0---L--L--L-----------------|--------------------0-----|


  ^                                                      
  E   E  E  E  E  E   E  E     E  E  E    E  Q    E  E   
--5S--4-----0--2---------0--|--------2--2g4-------------|
---------7--------4p--0-----|---------------------------|
--6-------------------------|-----2--2--2g4-------------|
----------------------------|---------------------------|
--L---L--L--L--2--L---L--L--|----------------4-------4--|
----------------------------|--0--L--L----L-------7-----|


  ^                                                    
  E   E  E  E  E  E   E  E     E  E  E  E  Q    E  E   
--5S--4-----0--2---------0--|-------------------x-----|
---------7--------4p--0-----|-----5-----5-------x-----|
--6-------------------------|-----6-----4-------x-----|
----------------------------|-----7-----6-------x-----|
--4---L--L--L--2--L---L--L--|-------------------x-----|
----------------------------|--0-----------0----x--0--|


    E  S  S E  E  E  E  E  E     E  E  E    E  E  E  E  E   
--2g4--2p-0-------------0--0--|-------------------0--------|
----0--L--L-2--------2-----2--|-----2-----0g2-----2-----0--|
---------------4--------------|-----2--2----2-----------2--|
------------------------------|--------L----L--4--L--4--L--|
------------------------------|--0--L--L----L--L--L--L--L--|
----0--L--L-L--L--4--L--L--L--|----------------------------|


    E  S  S E  E  E  E  E   E     E  E  E  E  E  E  E  E   
--2g4--2p-0--------------------|--------4--2--------------|
------------2--------2--4h--5--|-----2--------------0-----|
---------------4---------------|-----2-----------2--------|
-------------------------------|--------------------------|
-------------------------------|--0--L--L--L--2--L--L--2--|
----0--L--L-L--L--4--L--L---L--|--------------------------|


                 NH                                           
    E   E  E     E  E  E    E  E     E  E  E  E  E  E  E  E   
--2g4S--2--0-----------4--4g2--0--|-----------------0--------|
--------------<>12----------------|-----2-----0-----0--------|
--2g4S--2--1-----------4--4g2--1--|--------2-----------------|
----------------------------------|--------------------------|
--------------------4--L----L-----|--0-----------2--------0--|
----0---L--L-----L----------------|--------------------0-----|


  ^                                                      
  E   E  E  E  E  E   E  E     E  E  E    E  Q    E  E   
--5S--4-----0--2---------0--|--------2--2g4-------------|
---------7--------4p--0-----|---------------------------|
--6-------------------------|-----2--2--2g4-------------|
----------------------------|---------------------------|
--L---L--L--L--2--L---L--L--|----------------4-------4--|
----------------------------|--0--L--L----L-------7-----|


  ^                                                   
  E  E  E  E  E  E   E  E     E  E  E  E  Q    E  E   
--5--4--------2---------0--|-------------------x-----|
--------7--5-----4p--0-----|-----5-----5-------x-----|
--6------------------------|-----6-----4-------x-----|
---------------------------|-----7-----6-------x-----|
--4--L--L--L--2--L---L--L--|-------------------x-----|
---------------------------|--0-----------0----x--0--|


  E  S  S E  E  E  E  E  E     E  E  E    E  E  E  E  E   
--4-------------------------|-------------------0--------|
--5--5p-4-------------4--5--|-----------0g2--------------|
--6-------6--4-----6--------|-------------2--------------|
----------------------------|-----4----------------4-----|
--4--L--L-L--L--------------|--------2-------2--------2--|
----------------5--L--L--L--|--4--L--L----L--------------|


  E  S  S E  E  E  E  E  E     E    E  E  E  E  E  E  E   
--4-------------------------|----------------------------|
--5--5p-4-------------4--5--|----------------------------|
--6-------6--4-----6--------|-----4g6-----4--------4-----|
----------------------------|-------6-----------4--------|
--4--L--L-L--L--------------|----------2--L--2--L--L--2--|
----------------5--L--L--L--|--4----L--------------------|


  E  S  S E  E  E  E  E  E     E  E   E  E  E  S S E  E     E  E  E  E   
--4-------------------------|-----2h--4--0------------0--|--------0-----|
--5--5p-4-------------4--5--|-----0---L--L---------0-----|-----2--------|
--6-------6--4-----6--------|-----2h--4--1-------1-------|--------------|
----------------------------|------------------2---------|--------------|
--4--L--L-L--L--------------|----------------------------|--1-----------|
----------------5--L--L--L--|--4------------2------------|-----------2--|


  E   E  E  E  E   E  E  E     E  E  E  E  Q    E  E   
---------------0h--2-----0--|-------------------x-----|
---------2--4---------4-----|-----5-----5-------x-----|
--2h--4--------2------------|-----6-----4-------x-----|
--2-------------------------|-----7-----6-------x-----|
--0------------2------------|-------------------x-----|
----------------------------|--0-----------0----x--0--|


    E  S  S E  E  E  E  E  E     E  E  E    E  E  E  E  E   
--2g4--2p-0-------------0--0--|-------------------0--------|
----0--L--L-2--------2--------|-----2-----0g2-----2-----0--|
---------------4--------------|-----2--2----2-----------2--|
------------------------------|--------L----L--4--L--4--L--|
------------------------------|--0--L--L----L--L--L--L--L--|
----0--L--L-L--L--4--L--L--L--|----------------------------|


    E  S  S E  E  E  E  E   E     E  E  E  E  E  E  E  E   
--2g4--2p-0--------------------|--------4--2--------------|
----0--L--L-2--------2--4h--5--|-----2--------------0-----|
---------------4---------------|-----2-----------2--------|
-------------------------------|--------------------------|
-------------------------------|--0--L--L--L--2--L--L--2--|
----0--L--L-L--L--4--L--L---L--|--------------------------|


    E   E  E  E  E    E   E  E     E  E  E  E  E  E  E  E   
--2g4S--2--0--0-----2g4p--2--0--|-----------------0--------|
--------------------------------|-----2-----0--------------|
--2g4S--2--1--1-----2g4p--2--1--|--------2-----------------|
--------------------------------|--------------------------|
-----------------4----L---L-----|--0--L--L--L--2--L-----0--|
----0---L--L--L-----------------|--------------------0-----|


  ^                                                      
  E   E  E  E  E  E   E  E     E  E  E    E  Q    E  E   
--5S--4-----0--2---------0--|--------2--2g4-------------|
---------7--------4p--0-----|---------------------------|
--6-------------------------|-----2--2--2g4-------------|
----------------------------|---------------------------|
--L---L--L--L--2--L---L--L--|----------------4-------4--|
----------------------------|--0--L--L----L-------7-----|


  ^                                                    
  E   E  E  E  E  E   E  E     E  E  E  E  Q    E  E   
--5S--4-----0--2---------0--|-------------------x--0--|
---------7--------4p--0-----|-----5-----5-------x-----|
--6-------------------------|-----6-----4-------x-----|
----------------------------|-----7-----6-------x-----|
--4---L--L--L--2--L---L--L--|-------------------x-----|
----------------------------|--0-----------0----x-----|

This is my favourite part................................
                                              ^        
  E  E    E  E  E  E  E  E     E  E  E  E  E  Q    E   
--2-----2g4--0--------2--0--|-----------------0-------|
-----0----------------------|-----2-----0-----0-------|
-------------------3--------|--------2--------1-------|
----------------------------|-------------------------|
--4-------------3-----------|--2-------------------2--|
----------------------------|--------------0----------|

..................................................
                                          |--3--|            
  E  E   E  E  E  E  E  E     E  E  E  E  S  S  S  E  E  E   
-----2h--4--0--------2--0--|--7-----5-----4h-5p-4s-2--0-----|
-----0---L--L--------------|-----0-----0--------------------|
------------------3--------|--------------------------------|
---------------------------|--------------------------------|
--4------------3--L--L--L--|--------------------------------|
---------------------------|--7--L--L--L--0--L--L--L--L--0--|

...................................................
                                                ^        
  S S  S S  E  E  E  E  E  E     E  E  E  E  E  Q    E   
--2------2h-4--0--------2--0--|-----------------0-------|
----4p-0----------------------|-----2-----0-----0-------|
---------------------3--------|--------2--------1-------|
------------------------------|-------------------------|
--4-L--L-L--L--L--3-----------|--2-----------1-------1--|
------------------------------|-------------------------|

......................................till here
  E   E  E  E  E   E  E  E     E  E  E  E  Q    E  E   
---------------0h--2-----0--|-------------------x-----|
---------2--4---------4-----|-----5-----5-------x-----|
--2h--4--------2------------|-----6-----4-------x-----|
--2-------------------------|-----7-----6-------x-----|
--0------------2------------|-------------------x-----|
----------------------------|--0-----------0----x--0--|


    E  S  S E  E  E  E  E  E     E  E  E    E  E  E  E  E   
--2g4--2p-0-------------0--0--|-------------------0--------|
----0--L--L-2--------2--------|-----2-----0g2-----2-----0--|
---------------4--------------|-----2--2----2-----------2--|
------------------------------|--------L----L--4--L--4--L--|
------------------------------|--0--L--L----L--L--L--L--L--|
----0--L--L-L--L--4--L--L--L--|----------------------------|


    E  S  S E  E  E  E  E   E     E  E  E  E  E  E  E  E   
--2g4--2p-0--------------------|--------4--2--------------|
----0--L--L-2--------2--4h--5--|-----2--------------0-----|
---------------4---------------|-----2-----------2--------|
-------------------------------|--------------------------|
-------------------------------|--0--L--L--L--2--L--L--2--|
----0--L--L-L--L--4--L--L---L--|--------------------------|


    E   E  E  E  E    E   E  E     E  E  E  E  E  E  E  E   
--2g4S--2--0--0-----2g4p--2--0--|-----------------0--------|
--------------------------------|-----2-----0-----0--------|
--2g4S--2--1--1-----2g4p--2--1--|--------2-----------------|
--------------------------------|--------------------------|
-----------------4----L---L-----|--0-----------2--------0--|
----0---L--L--L-----------------|--------------------0-----|


  ^                                                      
  E   E  E  E  E  E   E  E     E  E  E    E  Q    E  E   
--5S--4-----0--2---------0--|--------2--2g4-------------|
---------7--------4p--0-----|---------------------------|
--6-------------------------|-----2--2--2g4-------------|
----------------------------|---------------------------|
--L---L--L--L--2--L---L--L--|----------------4-------4--|
----------------------------|--0--L--L----L-------7-----|


  ^                                                  
  E   E  E  E  E  E  E  E     E  E  E  E  H          
--5S--4-----0--2--------0--|-----------------------||
---------7--------4--0-----|-----------5-----------||
--6------------------------|-----6-----4-----------||
---------------------------|-----7-----6-----------||
--L---L--L--L--2--L--L--L--|-----7-----------------||
---------------------------|--0-----------0--------||




Duration Legend
---------------
W - whole
H - half
Q - quarter
E - 8th
S - 16th
T - 32nd
X - 64th
. - note dotted
|-n-|  - n-tuplets


Tablature Legend
----------------
L - tied note
x - dead note
g - grace note
(n) - ghost note
> - accentuded note
NH - natural harmonic
AH - artificial harmonic
TH - tapped harmonic
SH - semi harmonic
PH - pitch harmonic
h - hammer on
p - pull off
b - bend
br - bendRelease
pb - preBend
pbr - preBendRelease
brb - bendReleaseBend
\n/ - tremolo bar dip
\n - tremolo bar dive
-/n - tremolo bar Release up
/n\ - tremolo bar inverted dip
/n - tremolo bar return
-\n - tremolo bar Release down
S - shift slide
s - legato slide
/ -  slide into from below or out of upwards
\ -  slide into from above or out of downwards
~ - vibrato
W - wide vibrato
tr - trill
TP - tremolo picking
T - tapping
S - slap
P - pop
< - fade in
^ - brush up
v - brush down
Tap to rate this tab
 
# A B C D E F G H I J K L M N O P Q R S T U V W X Y Z