Song name
# A B C D E F G H I J K L M N O P Q R S T U V W X Y Z

Pat Mccurdy - God tab

this song is pretty much strait forward
it should be finger picked

main riff thing

     "you find god the moment you......"

e------4---2---------2---4---0-------0--------------------------|
b------------------------------4---------4-----2---4-2-0--------|
G---------------------------------------------------------------|
D----------------------------------------------------------4----|
A--2-2-2-2-2-2-2-2-2-2-2-2-2-2-2-2-2-2-2-2-2-2-2-2-2-2-2-2-2-2--|
E---------------------------------------------------------------|

bridge

     "we exist  all of this....."

e------4h0-2-------4h0-2-------4h0-2-------------------------------|
b------------------------------------4---2---4---2---0-------------|
G------------------------------------------------------------------|
D--------------------------------------------------------4---------|
A--2-2-2-2-2-2-2-2-2-2-2-2-2-2-2-2-2-2-2-2-2-2-2-2-2-2-2-2-2-2-2-2-|
E------------------------------------------------------------------|

thats pretty much it, if there are mistakes please let me know
it might not be perfect but it's good enough for me

joe   robo_attack_86@yahoo.com
Tap to rate this tab
 
# A B C D E F G H I J K L M N O P Q R S T U V W X Y Z