Guitaretab - guitar tabs
Song name
# A B C D E F G H I J K L M N O P Q R S T U V W X Y Z

Pat Mcgee Band - On Your Way Out Of Here tab

On Your Way Out of Here
Artist: Pat McGee Band
Album: Revel

Contributor: Daniel Schnall

Intro
e|-----------0----------------------0------|
B|---------3---3--------------0-0h2---2p0--|
G|---------2-----2------------2------------|
D|------0--0---------0--------2------------|
A|--0h2--------------------2---------------|
E|---------------------0h3-----------------|

[ Tab from: http://www.guitaretab.com/p/pat-mcgee-band/179932.html ]
Verse
    E7sus4   D     G   Asus2   
e|-----0-----0-----3-----0-----|
B|-----0-----3-----3-----0-----|
G|-----2-----2-----0-----2-----|
D|-----0-----0-----0-----2-----|
A|-----2-----------2-----0-----|
E|-----------------3-----------|


Pre-Chorus
      Em     D     G   Asus2 E7sus4  
e|-----0-----0-----3-----0-----0-----|
B|-----0-----3-----3-----0-----0-----|
G|-----0-----2-----0-----2-----2-----|
D|-----2-----0-----0-----2-----0-----|
A|-----2-----------2-----0-----2-----|
E|---0-0-----------3-----------------|


Chorus
    E7sus4   G     D   Asus2   
e|-----0-----3-----0-----0-----|
B|-----0-----3-----3-----0-----|
G|-----2-----0-----2-----2-----|
D|-----0-----0-----0-----2-----|
A|-----2-----2-----------0-----|
E|-----------3-----------------|
Related for On Your Way Out Of Here tab