Guitaretab - guitar tabs
Song name
# A B C D E F G H I J K L M N O P Q R S T U V W X Y Z

Pat Mcgee Band - Lost tab

Highlighted       Show chord diagrams
Lost
Artist: Pat McGee Band
Album: Shine

Contributor: Daniel Schnall


Intro / Chorus
     C    G   Dm7   F
e|---0----3----5----3---|
B|---1----3----6----1---|
G|---0----0----5----2---|
D|---2----0----7----3---|
A|---3----2----5--------|
E|--------3---(5)-------|

[ Tab from: http://www.guitaretab.com/p/pat-mcgee-band/182860.html ]
Verse
     C    G    Am   G    F    G
e|---3----3----0----3----3----3---|
B|---1----1----1----1----1----1---|
G|---0----0----2----0----2----0---|
D|---2----0----2----0----3----0---|
A|---3----2----0----2---------2---|
E|--------3---------3---------3---|


Bridge
     Am   F    G
e|---0----3----3----|
B|---1----1----1----|
G|---2----2----0----|
D|---2----3----0----|
A|---0---------2----|
E|-------------3----|

Bridge variation:
e|---0-----------------|
B|---1------0-----0----|
G|---2------2-----2----|
D|---2------2-----2----|
A|---0-----------------|
E|--------1-----3------|
Related for Lost tab