Guitaretab - guitar tabs
Song name
# A B C D E F G H I J K L M N O P Q R S T U V W X Y Z

Pat Mcgee Band - Gibby tab

Gibby
Artist: Pat McGee Band
Album: Shine

Contributor: Daniel Schnall


Intro / Pre-Verse
e|-----5------------------|
B|-----x------------------|
G|-----6-6h7--7p6-7p6-----|
D|-----7--------------7---|
A|------------------------|
E|---5--------------------|

e|-----5------------------|
B|-----x--------------5---|
G|-----6-6h7--7p6-7p6-----|
D|-----7------------------|
A|------------------------|
E|---5--------------------|

e|-----5------------------|
B|-----x------------------|
G|-----6-6h7--7p6-7p6-----|
D|-----7--------------7---|
A|------------------------|
E|---5--------------------|

e|-----5---5/9---9---7--5---|
B|-----x---7/10--10--8--7---|
G|-----6--------------------|
D|-----7--------------------|
A|--------------------------|
E|---5----------------------|


Verse
     A    D
e|---0--------|
B|---0----3---|
G|---2----2---|
D|---2----0---|
A|------------|
E|------------|

[ Tab from: http://www.guitaretab.com/p/pat-mcgee-band/183621.html ]
Pre Chorus
   Badd4  A    E   Badd4  A    E
e|---0----0----0-----0----0----0---|
B|---0----0----0-----0----0----0---|
G|---4----2----1-----4----2----1---|
D|---4----2----2-----4----2----2---|
A|---2----0----2-----2----0----2---|
E|-------------0---------------0---|


Chorus
     D    A   F#m   E   F#m   A    D
e|--------0----2----0----2----0--------|
B|---3----2----2----0----2----2----3---|
G|---2----2----2----1----2----2----2---|
D|---0----2----4----2----4----2----0---|
A|--------0----4----2----4----0--------|
E|-------------2----0----2-------------|

     D    A   F#m   E   F#m   A    G    D
e|--------0----2----0----2----0----3--------|
B|---3----2----2----0----2----2----3----3---|
G|---2----2----2----1----2----2----0----2---|
D|---0----2----4----2----4----2----0----0---|
A|--------0----4----2----4----0----2--------|
E|-------------2----0----2---------3--------|


Bridge
     G    D    A
e|---3---------0----|
B|---3----3----2----|
G|---0----2----2----|
D|---0----0----2----|
A|---2---------0----|
E|---3--------------|
Related for Gibby tab