Song name
# A B C D E F G H I J K L M N O P Q R S T U V W X Y Z

Pat Mcmanus - Needle In The Groove tab

Intro/ Main Riff


E------12--12--12----------------------------------------------------|
B------13--12--13---------12-----------10-----------10---------------|
G------12--12--12------------12-----------11-------------------------|
D------14--12--14---------------12-----------12----------------------|
A--00--12--12--12--12------------------------------------------------|
E--------------------------------------------------------------------|

E----8---7-----|
B---6-6-----6--|
G--7---7-------|  Play four times then back to the main riff.
D--------------|
A--------------|
E--------------|

Chorus...

E-------8-----------5-----------7---------------------------------|
B-------9-----------6-----------8---------------------------------|
G-------8-----------5-----------7---------------------------------|
D-----10-----------7----------9-----------------------------------|
A--8----------5------------7--------------------------------------|
E-----------------------------------------------------------------|


E------------------------------------------------------------|
B------------------------------------------------------------|
G----5---0--7--5--0--7--5--------5---------------------------|
D----5---0--7--5--0--7--5--5--7------------------------------|
A-00---------------------------------------------------------|
E------------------------------------------------------------|

E----------------------------------------------------------------|
B----------------------------------------------------------------|
G-12---/9---11----/7-----9-----/5-----7------5------3----2--2----|
D------------------------------------------------------- 2--2----|
A-10---/7----9----/5-----7-----/3-----5------3------1----0--0----|
E----------------------------------------------------------------|

Still working on the solo.. Should have it finished soon

www.patmcmanus.co.uk
Tap to rate this tab
# A B C D E F G H I J K L M N O P Q R S T U V W X Y Z