Song name
# A B C D E F G H I J K L M N O P Q R S T U V W X Y Z

Pat Metheny - Last Train Home tab

Intro (Bass & Drums)
  Q=194
 4/4
  Gtr I
  Wx8
|--------|
|--------|
|--------|
|--------|
|--------|
|--------|


   Theme
    $
    Bb          C/Bb         Ab              Bb
   4/4
    Gtrs I, II
    H    H      H    Q  Q    Q.   E Q.   E   +E  E +Q   +H
||------------|------------|---------------|-------------------|
||o-----------|------------|---------------|-------------------|
||-------7----|-7----5-----|-5-------------|-------------------|
||--8---------|---------8--|------8-8----5-|-(5)-8-(8)--(8)----|
||o-----------|------------|---------------|-------------------|
||------------|------------|---------------|-------------------|
|
|   Gtrs III, IV
|   W           W            W                W
||------------|------------|---------------|-------------------|
||o-6---------|-5----------|-4-------------|--6----------------|
||--7---------|-5----------|-5-------------|--7----------------|
||--8---------|-5----------|-6-------------|--8----------------|
||o-8---------|------------|-6-------------|--8----------------|
||--6---------|-6----------|-4-------------|--6----------------|


                 Dm7         Gm7             Eb
  +H     Q  Q    H    H       H     Q.   E   +E  Q.   Q  E    +E
|--------------|-----------|---------------|-----------------------|
|--------------|-6----6----|---------------|-----------------------|
|-----------7--|-----------|--------7----5-|-(5)-------------------|
|-(8)----8-----|-----------|--8------------|-----8----5--5pb6r(5)--|
|--------------|-----------|---------------|-----------------------|
|--------------|-----------|---------------|-----------------------|
|
| +W             W            W               W
|--------------|-----------|---------------|-----------------------|
|-(6)----------|-6---------|--6------------|--4--------------------|
|-(7)----------|-5---------|--3------------|--3--------------------|
|-(8)----------|-7---------|--3------------|--5--------------------|
|-(8)----------|-5---------|-(5)-----------|--6--------------------|
|-(6)----------|-----------|--3------------|-----------------------|


  F7sus4                     Gm/F#          Gm/Ebadd9
  W          +H     +H       +H.      +E  E    +E  E +H     +E  E
|----------|---------------|-----------------|--------------------|
|----------|---------------|-----------------|--------------------|
|----------|---------------|-----------------|--------------------|
|-3--------|-(3)----(3)----|-(3)------(3)-3--|-(3)-5-(5)----(5)-8-|
|----------|---------------|-----------------|--------------------|
|----------|---------------|-----------------|--------------------|
|
| W          +W               W                 W
|----------|---------------|-----------------|--------------------|
|-1--------|-(1)-----------|--1--------------|--3-----------------|
|-3--------|-(3)-----------|--2--------------|--3-----------------|
|-1--------|-(1)-----------|--1--------------|--0-----------------|
|-3--------|-(3)-----------|--3--------------|--------------------|
|-1--------|-(1)-----------|--1--------------|--3-----------------|


  Gm/F#                          Gm/F
  +E  E +Q   +E  S    +S  +Q     +E  E +Q   +Q.   E
|------------------------------|--------------------|
|------------------------------|--------------------|
|-----5-(5)--(5)-5pb6r(5)-(5)--|-(5)--------------7-|
|-(8)--------------------------|-----8-(8)--(8)-----|
|------------------------------|--------------------|
|------------------------------|--------------------|
|
|  W                              W
|------------------------------|--------------------|
|--3---------------------------|--3-----------------|
|--3---------------------------|--3-----------------|
|--0---------------------------|--0-----------------|
|------------------------------|--------------------|
|--2---------------------------|--1-----------------|


  Ebadd9
  +E  Q.   +H       +H     +Q.   E
|-----------------|--------------5-|
|-----8----(8)----|-(8)----(8)-----|
|-(7)-------------|----------------|
|-----------------|----------------|
|-----------------|----------------|
|-----------------|----------------|
|
|  W                +W
|-----------------|----------------|
|--6--------------|-(6)------------|
|--3--------------|-(3)------------|
|--5--------------|-(5)------------|
|--6--------------|-(6)------------|
|-----------------|----------------|


  Dm7                  Gm7                  Dm7               Gm7
  +E  E +Q   +Q.   E   +E  E +Q   +Q.   E   +E  E +Q   H      W
|-(5)----------------|--------------------|-----------------|-6----|
|-----6-(6)--(6)-----|------------------8-|-(8)-6-(6)-------|------|
|------------------7-|-(7)----------------|------------7----|------|
|--------------------|-----8-(8)--(8)-----|-----------------|------|
|--------------------|--------------------|-----------------|------|
|--------------------|--------------------|-----------------|------|
|
|  W                    W                    W                W
|--------------------|--------------------|-----------------|------|
|--6-----------------|--3-----------------|--6--------------|-3----|
|--5-----------------|--3-----------------|--5--------------|-3----|
|--7-----------------|--3-----------------|--7--------------|-3----|
|--5-----------------|--------------------|--5--------------|------|
|--------------------|--3-----------------|-----------------|-3----|


                Ebmaj9
  +H.      Q    H    H      q  Q   H
|-(6)---------|-----------|--------------|
|----------8--|-6---------|-6--6---------|
|-------------|------7----|--------7-----|
|-------------|-----------|--------------|
|-------------|-----------|--------------|
|-------------|-----------|--------------|
|
| +W            W           H      H
|-------------|-----------|--------------|
|-(3)---------|-6---------|-6-----(6)----|
|-(3)---------|-7---------|-7------7-----|
|-(3)---------|-5---------|-5-----(5)----|
|-------------|-6---------|-6-----(6)----|
|-(3)---------|-----------|--------------|


           EbmajF7/A F6/A     Bb         F/Bb
  +H.      Q    H     H       W
|-------------|-------------|---------------|
|----------8--|-6-----------|---------------|
|-(7)---------|-------7-----|---------------|
|-------------|-------------|-8-------------|
|-------------|-------------|-5-----8-------|
|-------------|-------------|------------8--|
|                             Q.    Q.   Q
|
|  H.      Q    H     H       Q.    Q.   Q
|-------------|-1-----------|-------1-------|
|--6-------8--|-1-----3-----|-3----(3)---1--|
|--7-------7--|-2----(2)----|-3----(3)---2--|
|--5-------5--|-1----(1)----|-3----(3)---3--|
|--6-------6--|-------------|-1----(1)---1--|
|-------------|-1----(1)----|---------------|


                  Bb/G            F/G                         Bb         F/Bb
  +W              +H         E  E  E  E    Q.   E +H          W
|---------------|-----------------------|-------------------|----------------|
|---------------|-----------10-11-10-11-|-10----6-(6)-------|----------------|
|---------------|-----------------------|-------------------|----------------|
|-(8)-----------|-(8)-------------------|-------------------|----------------|
|-----------8---|--5-----8--------------|---------------8---|-5-----8--------|
|-(8)-----------|------------------8----|-(8)---------------|------------8---|
| +H.       Q      Q.    Q.        Q      +H.           Q     Q.    Q.   Q
|
| +H.       Q      Q.    Q.        Q      +H.           Q     Q.    Q.   Q
|-----------1---|--------1--------------|---------------1---|-------1--------|
|-(1)------(1)--|--3----(3)--------1----|-(1)----------(1)--|-3----(3)---1---|
|-(2)------(2)--|--3----(3)--------2----|-(2)----------(2)--|-3----(3)---2---|
|-(3)------(3)--|--3----(3)--------3----|-(3)----------(3)--|-3----(3)---3---|
|-(1)------(1)--|-----------------------|-------------------|-1----(1)---1---|
|---------------|--3----(3)--------3----|-(3)----------(3)--|----------------|


                 1.,D.S.
                                        To Coda
                  Bb/G           F/G
   W              Q.    E  a E E Q    +H.       Q
|---------------|-------------------|----------------||
|---------------|-------6-----------|---------------o||
|---------------|----------5S6-5----|----------------||
|---------------|----------------8--|-(8)------------||
|-----------8---|-5-----8-----------|-----------8---o||
|-(8)-----------|----------------8--|-(8)------------||
| +H.       Q     Q.    Q.       Q    +H.       Q
|
| +H.       Q     Q.    Q.       Q    +H.       Q
|-----------1---|-------1-----------|-----------1----||
|-(1)------(1)--|-3----(3)-------1--|-(1)------(1)--o||
|-(2)------(2)--|-3----(3)-------2--|-(2)------(2)---||
|-(3)------(3)--|-3----(3)-------3--|-(3)------(3)---||
|-(1)------(1)--|-------------------|---------------o||
|---------------|-3----(3)-------3--|-(3)------(3)---||


 Solo
  2.
  Bb/G         F/G                      Bb             C/Bb
  E E S S E Q  E E   E E E E  E E E E   H    E E E E   H    Q  E E
|------------------|------------------|------------5-|-------------|
|------------------|------------6-8---|-6--------6---|-8-----------|
|------------------|-3-3-5-3-/7-----7-|--------7-----|---------5-7-|
|---------3-3--5-3-|------------------|--------------|-------------|
|---3-3-5----------|------------------|--------------|-------------|
|------------------|------------------|--------------|-------------|


  Ab          Bb                              Dm7
  |---5---|
  Q Q Q Q Q   +Q   H.        E E E E E E Q    E. S +E  E +Q   E E
|-----------|--------------|----------------|----------------------|
|-------8-6-|-(6)----------|-----6-8-6------|----6-(6)-------------|
|-8-7-8-----|------7-------|-7-8-------8-7--|-5--------7-(7)--5----|
|-----------|--------------|----------------|-------------------8--|
|-----------|--------------|----------------|----------------------|
|-----------|--------------|----------------|----------------------|


  Gm7             Eb            F7sus4
                  |-3-|                              |-3-|
  E E Q  Q  E E   Q Q Q Q  Q    +H     H      Q  E E Q Q Q
|---------------|-------------|-------------|--------------|
|---------------|-------------|-------------|----------6---|
|-5-------------|-8-7-5-------|-------------|------7-8---7-|
|---5-8-------8-|-------8--5--|-(5)---------|--------------|
|---------------|-------------|-------------|--------------|
|---------------|-------------|-------------|--------------|


  F            Gm             Gm/F#             Gm/F
  |-3-|
  Q Q Q H      H    E E E E   Q  H    S S S S   E E H    E E
|------------|--------------|-----------------|--------------|
|------------|--------------|-----------------|--------------|
|-5---5-7----|------5---5---|-5--7----5h6p5---|-5------------|
|---8--------|--------8---8-|---------------7-|---5-8----5---|
|------------|--------------|-----------------|------------8-|
|------------|--------------|-----------------|--------------|


  Ebadd9                           Dm7              Gm7
  |-3-| |-3--|
  Q Q Q Q Q +Q    +H     E E E E   Q  E Q  Q  S S   Q.   E Q.   E
|---------------|----------------|----------------|---------------|
|---------------|----------------|----------------|-------------6-|
|---------------|----------------|---------5------|------5-7------|
|---------------|--------------3-|------7-----8-7-|-8-------------|
|-6-5-3---------|------------5---|-7--8-----------|---------------|
|-------6-3-(3)-|-(3)----3-6-----|----------------|---------------|


  Dm7             Gm7                               Ebmaj9
  Q  E Q  E E E   H    E Q.     E  Q.   +H            H      H
|---------------|-6----5------|-------------------|----------------|
|-6--8-6--------|--------8----|-6------------(8)--|--(6)-----------|
|---------7-5---|-------------|----7----(7)-------|---------(7)----|
|-------------8-|-------------|-------------------|----------------|
|---------------|-------------|-------------------|----------------|
|---------------|-------------|-------------------|----------------|
                                H.            Q


                                       F7               Bb         F/Bb
   q    Q   E E E E   E E Q  Q   Q      H     E E E E   E E E E Q  E E
|-------------------|----------------|----------------|-----------------|
|-(6)--(6)----------|-----------(8)--|-(6)------------|-----------------|
|-------------------|-7--------------|----------------|-----------------|
|-----------8-8-5-8-|---5-8----------|------------5---|-8-----8----8-8--|
|-------------------|----------------|--------5-8---5-|-----------------|
|-------------------|----------------|----------------|-----------------|


                  Bb/G       F/G                  Bb        F/Bb
  E E E E Q  Q    H    a E E E E   E E E E H      H    Q.   E
|---------------|----------------|--------------|-------------|
|---6-8---6--8--|----------------|--------------|-------------|
|-7-----7-------|------7S6-5-----|---------7----|-----------7-|
|---------------|------------8-5-|-8-8-5-8------|------8------|
|---------------|----------------|--------------|-------------|
|---------------|----------------|--------------|-------------|


                     Gm7          F/G                         Bb
  Q.    E  Q  E  E    Q.    E  Q   E  E    Q   E  Q   E  Q    H     Q   E  E
|------------------|--------------------|-15-----13---------|-----------------|
|-------------8-10-|-11----11-11--13S15-|-----15-----15-13--|----------15-13--|
|-7----10-10-------|--------------------|-------------------|------15---------|
|------------------|--------------------|-------------------|-----------------|
|------------------|--------------------|-------------------|-----------------|
|------------------|--------------------|-------------------|-----------------|


  C/Bb           Ab
  H     Q   Q     Q   E  Q   E  +E   S     S
|--------------|-----------------------------|
|------13--15--|-16--15-13-------------------|
|--------------|------------12-(12)-12b14r12-|
|--------------|-----------------------------|
|--------------|-----------------------------|
|--------------|-----------------------------|


  Bb
                            |--3--|
   H    H       E  E  E  E  Q  Q  Q
|------------|-------------13-15-17--|
|------------|----------15-----------|
|------------|-15----15--------------|
|-15---------|----15-----------------|
|------------|-----------------------|
|------------|-----------------------|


  Dm7                         Gm7
                                      |--3--|
   +E   E  E  E  E  E  E  E    Q   Q  Q  Q  Q
|-(17)-15-13----------------|-----------------|
|------------15-13----------|-----------------|
|------------------15-14-12-|-----------------|
|---------------------------|-15--12----10-12-|
|---------------------------|-----------------|
|---------------------------|-----------------|


  Eb                  F7sus4
   Q  E  E  Q.    E    Q.    E  H
|-------------------|----------------|
|----------------11-|-10-------------|
|-------------------|-------12-10----|
|-13----12-13-------|----------------|
|-------------------|----------------|
|-------------------|----------------|


                   F7               Gm              Gm/F#
  H     E  E E E   E E Q  E E E E   Q.   E E Q  E   E E E E E Q.
|----------------|----------------|---------------|-----------------|
|----------------|----------------|---------------|-----------------|
|------10-10-8-8-|-7-7-5------5---|-7----7-7-7--8-|---7---5---------|
|----------------|--------8-8---8-|---------------|-----------8-----|
|----------------|----------------|---------------|-----------------|
|----------------|----------------|---------------|-----------------|


  Gm/F             Ebadd9                          Dm7
                                         |--3--|
  Q  E E E E E E   Q  H.        Q.    E  Q  Q  Q    +H     Q   E  E
|----------------|------------|------------------|------------------|
|--------8-------|------------|------11-10-------|------------------|
|-7--7-7---7---5-|------------|------------12-10-|-(10)-------------|
|----------------|----8-------|------------------|------------------|
|----------------|------------|------------------|------------12-13-|
|----------------|------------|------------------|------------------|


  Gm7                  Dm7
   +H     E  E  E  E    Q   E  Q   Q   E
|--------------------|-------------------|
|-----------11-10----|--------10--11--13-|
|-----------------12-|-10--12------------|
|--------------------|-------------------|
|-(13)---------------|-------------------|
|--------------------|-------------------|


  Gm7
                          |--3--|
   E  Q   E  +H        E  S  S  S  E  E  E  E  Q
|-10-11--10-(10)----|------------------------------|
|-------------------|-13-14p13p11-------11-11------|
|-------------------|-------------12-10-------12---|
|-------------------|------------------------------|
|-------------------|------------------------------|
|-------------------|------------------------------|


  Ebmaj9                                                F7
   +H     Q   E  E    H    Q   E  E    Q   E  E  H      H    S S S S E E
|------------------|----------------|-----------------|-------------------|
|------------------|----------------|-----------------|-------------------|
|-(12)-------12----|-10-------12----|-10--12----10----|------5h6p5--------|
|---------------12-|-------------12-|--------12-------|------------8-5----|
|------------------|----------------|-----------------|----------------8--|
|------------------|----------------|-----------------|-------------------|


  Bb      F/Bb                     Bb/Gb       F/G
  H.      +Q     E E E E E E E E   E E E E E E E E   E E E E E E E E
|--------------|-----------------|-----------------|------------------|
|--------------|-6-----6-----6---|---6-----6-----6-|-----6-----6------|
|--------------|---0-----0-----0-|-----0-----0-----|-0-----0-----0----|
|-8-------(8)--|-----8-----8-----|-8-----8-----8---|---8-----8-----8--|
|--------------|-----------------|-----------------|------------------|
|--------------|-----------------|-----------------|------------------|


 Interlude
  Eb                            Dm7        Gm7
  Gtr V
  H    H       H     +E  Q.     W          W
|-----------|-----------------|----------|------|
|-----------|-----------------|----------|------|
|-----------|-----------------|----------|------|
|------5----|--5-----(5)-5----|-5--------|-3----|
|------8----|--6-----(6)-5----|-3--------|-3----|
|-----------|-----------------|----------|------|
|
| Gtrs III, IV
| W           +H      H         W          W
|-----------|-----------------|----------|------|
|-4---------|-(4)-----4-------|-6--------|-6----|
|-3---------|-(3)-----3-------|-5--------|-3----|
|-5---------|-(5)-----5-------|-7--------|-3----|
|-6---------|-(6)-----6-------|-5--------|-5----|
|-----------|-----------------|----------|-3----|


  Eb                                 Dm7           Gm7
  Q.  E Q.    E    +E  +Q   Q.  Q    +H     H       Q.   Q.   Q
|----------------|-----------------|-------------|-----------------|
|----------------|-----------------|-------------|-----------------|
|----------------|----------3p==2--|-(2)---------|-----------------|
|-------------5--|-(5)-(5)--5p==3--|-(3)----3----|-(3)--(3)--(3)---|
|-6p==3p1----(1)-|-(1)-(1)---------|--------5----|--1h===3p===1----|
|----------------|-----------------|-------------|-----------------|
|
| W                +W                 W             W
|----------------|-----------------|-------------|-----------------|
|-4--------------|-(4)-------------|--6----------|--6--------------|
|-3--------------|-(3)-------------|--5----------|--3--------------|
|-5--------------|-(5)-------------|--7----------|--3--------------|
|-6--------------|-(6)-------------|--5----------|--5--------------|
|----------------|-----------------|-------------|--3--------------|


  Eb                                 Dm7          Gm7
  Q.  E Q.    E     Q.    E  Q.  E    W           Q.    E  +E   Q.
|----------------|-----------------|------------|---------------------|
|----------------|-----------------|------------|---------------------|
|----------------|--------2--------|------------|-3----(3)-(3)-(3)----|
|-------------3h=|==5--------5p==3-|-(3)--------|-------0--(0)h=5-----|
|-6p==3p1----(1)-|-(1)---(1)-----5p|==3---------|---------------------|
|----------------|-----------------|------------|---------------------|
|
| W                +W                 W           W
|----------------|-----------------|------------|---------------------|
|-4--------------|-(4)-------------|--6---------|-6-------------------|
|-3--------------|-(3)-------------|--5---------|-3-------------------|
|-5--------------|-(5)-------------|--7---------|-3-------------------|
|-6--------------|-(6)-------------|--5---------|-5-------------------|
|----------------|-----------------|------------|-3-------------------|


                                         D.S. al Coda
  Ab                          F7sus4
  E Q.  E Q.     +W           H    H       H.      Q
|--------------|------------|-----------|--------------|
|--------------|------------|-----------|--------------|
|--------------|------------|-----------|--------------|
|-0h1p==0------|------------|-----------|--------------|
|---------3----|-(3)--------|-3----1----|--3-------1---|
|--------------|------------|-----------|--3-----------|
|
| W              +W           W           +W
|--------------|------------|-----------|--------------|
|-4------------|-(4)--------|-1---------|-(1)----------|
|-5------------|-(5)--------|-3---------|-(3)----------|
|-6------------|-(6)--------|-1---------|-(1)----------|
|-6------------|-(6)--------|-3---------|-(3)----------|
|-4------------|-(4)--------|-1---------|-(1)----------|


   Outro (repeat & fade)
    &
    Bb         F/Bb                   Gm7        F/G
    Gtrs I, II
    W                  W              W                  W
||-----------------|----------------|----------------|-----------------||
||o----------------|----------------|----------------|----------------o||
||--7----10--------|----------------|-7----10--------|-----------------||
||-------------10--|-(10)------10---|------------10--|-(10)------10----||
||o-5-----8--------|----------------|-5-----8--------|----------------o||
||--------------8--|--(8)-------8---|-------------8--|--(8)-------8----||
|   Q.    Q.    Q     +H.       Q     Q.    Q.    Q     +H.       Q
|
|   Gtrs III, IV
|   Q.    Q.    Q     +H.       Q     Q.    Q.    Q     +H.       Q
||--------1--------|------------1---|-------1--------|------------1----||
||o-3----(3)----1--|--(1)------(1)--|-3----(3)----1--|--(1)------(1)--o||
||--3----(3)----2--|--(2)------(2)--|-3----(3)----2--|--(2)------(2)---||
||--3----(3)----3--|--(3)------(3)--|-3----(3)----3--|--(3)------(3)---||
||o-1----(1)----1--|--(1)------(1)--|----------------|----------------o||
||-----------------|----------------|-3----(3)----3--|--(3)------(3)---||




--------------------------------------------------------------------------------


Duration Legend
---------------
W - whole; H - half; Q - quarter; E - 8th; S - 16th; T - 32nd; X - 64th; a - acciaccatura
+ - note tied to previous; . - note dotted; .. - note double dotted
Uncapitalized letters represent notes that are staccato (1/2 duration)
Irregular groupings are notated above the duration line
Duration letters will always appear directly above the note/fret number it represents the
duration for.  Duration letters with no fret number below them represent rests.  Multi-
bar rests are notated in the form Wxn, where n is the number of bars to rest for.  Low
melody durations appear below the staff

Tablature Legend
----------------
 h   - hammer-on
 p   - pull-off
 b   - bend
 pb  - pre-bend
 r   - bend release (if no number after the r, then release immediately)
 /\  - slide into or out of (from/to "nowhere")
 s   - legato slide
 S   - shift slide
 - natural harmonic
[n]  - artificial harmonic
n(n) - tapped harmonic
 ~   - vibrato
 tr  - trill
 T   - tap
 TP  - trem. picking
 PM  - palm muting
\n/  - tremolo bar dip; n = amount to dip
 \n  - tremolo bar down
 n/  - tremolo bar up
/n\  - tremolo bar inverted dip
 =   - hold bend; also acts as connecting device for hammers/pulls
 <> - volume swell (louder/softer)
 x   - on rhythm slash represents muted slash
 o   - on rhythm slash represents single note slash

Misc Legend
-----------
 |  - bar
||  - double bar
||o - repeat start
o|| - repeat end
*|  - double bar (ending)
 :  - bar (freetime)
 $  - Segno
 &  - Coda
Tempo markers -  = BPM(8/16=s8/s16), where s8 = swing 8ths, s16 = swing 16ths

Tap to rate this tab
 
# A B C D E F G H I J K L M N O P Q R S T U V W X Y Z