Song name
# A B C D E F G H I J K L M N O P Q R S T U V W X Y Z

Patent Pending - One Less Heart To Break tab

Hey, Nice a easy riff.
Not actually find one correct version of this song so i figured it out and
published You guys are going to have to figure out the rhythm for it :) I cant
hear any mistakes through this tab.
Enjoy!

PM - Palm Mute

Intro (Played with Pickup Volume around 20% with Distortion)

E|------------------------------------------------------------------|
A|--7---7---7---7---7---7---7---7---9---9---9---9---11---11---9---9-|
D|----9---9---9---9---9---9---9---9---9---9---9---9----9----9---9---|
G|------------------------------------------------------------------|
B|------------------------------------------------------------------|
E|------------------------------------------------------------------|



       PM|-----------------------|       PM|-------------------------|
E|-2----2--2--2--2--2--2--2--2--2----0----0--0--0--0--0--0--0--0-----|
A|-4----4--4--4--4--4--4--4--4--4----2----2--2--2--2--2--2--2--2-----|
D|-4----4--4--4--4--4--4--4--4--4----2----2--2--2--2--2--2--2--2-----|
G|-------------------------------------------------------------------|
B|-------------------------------------------------------------------|
E|-------------------------------------------------------------------| x2

Chorus

E|-------0000--4444--0000--     --------------0--|
A|-2222--2222--6666--2222--     --4444--6666--2--|
D|-4444--2222--6666--2222--     --6666--8888--2--|
G|-4444--------------------     --6666--8888-----|
B|-------------------------     -----------------|
E|------------------------- x2  -----------------|

Verse
  PM|------------------------|
E|-0----2--4--7----4--2--0---|
A|-2----4--6--9----6--4--2---|
D|-2----4--6--9----6--4--2---|
G|---------------------------|
B|---------------------------|
E|---------------------------| x4

Bridge

       PM|-----------------------|       PM|-------------------------|
E|-2----2--2--2--2--2--2--2--2--2----0----0--0--0--0--0--0--0--0-----|
A|-4----4--4--4--4--4--4--4--4--4----2----2--2--2--2--2--2--2--2-----|
D|-4----4--4--4--4--4--4--4--4--4----2----2--2--2--2--2--2--2--2-----|
G|-------------------------------------------------------------------|
B|-------------------------------------------------------------------|
E|-------------------------------------------------------------------| x2


Chorus

E|-------0000--4444--0000--     --------------0--|
A|-2222--2222--6666--2222--     --4444--6666--2--|
D|-4444--2222--6666--2222--     --6666--8888--2--|
G|-4444--------------------     --6666--8888-----|
B|-------------------------     -----------------|
E|------------------------- x2  -----------------|

Sequel

                PM
E|--0----2--4----4--7-|
A|--2----4--6----6--9-|
D|--2----4--6----6--9-|
G|--------------------|
B|--------------------|
E|--------------------|



E|-----------------|
A|--4444--6666--7--|
D|--6666--8888--9--|
G|--6666--8888--9--|
B|-----------------|
E|-----------------|



Chorus

E|-------0000--4444----0000--     -------------------|
A|-2222--2222--6666----2222--     --4444--6666--7----|
D|-4444--2222--6666----2222--     --6666--8888--9----|
G|-4444----------------------     --6666--8888--9----|
B|---------------------------     -------------------|
E|--------------------------- x2  -------------------|
Tap to rate this tab
# A B C D E F G H I J K L M N O P Q R S T U V W X Y Z