Song name
# A B C D E F G H I J K L M N O P Q R S T U V W X Y Z

Patent Pending - Drop Dead tab

Intro

e|------------------------------------------------------------------------------|
B|------------------------------------------------------------------------------|
G|-----44-------------------4468--44------------8864----44----------------------|
D|-22--44--44-------------4468--44--44--22----8864----44--44--22----------------|
A|-22--22--44------X4-----2246--22--44--22----6642----22--44--22----------------|X2
E|-22------44-----------------------44--22----------------44--22----------------|


e|------------------------------------------------------------------------------|
B|------------------------------------------------------------------------------|
G|------------------------864---------------------------------------------------|
D|------------------------xxx---------------------------------------------------|
A|--on second time play --642---------------------------------------------------|
E|------------------------------------------------------------------------------|
Tap to rate this tab
# A B C D E F G H I J K L M N O P Q R S T U V W X Y Z