Song name
# A B C D E F G H I J K L M N O P Q R S T U V W X Y Z

Patent Pending - Its All On Me tab

Patent Pending--It's all on me.
Tabbed by: Tyler Swetmon

I'm pretty sure this is right.

|----1-------1---|
|--3---3---3---3-|
|3-------3-------|
|----------------|
|----------------|
|----------------|

|--------1-------|
|----1-----1---1-|
|--2---2-----2---|
|3---------------|
|----------------|
|----------------|

|----1-------3---|
|--3---3---3---2-|
|3-------3-------|
|----------------|
|----------------|
|----------------|

 v ^ v ^ v ^ v ^ v ^ v
|1-1-x-1-x-1-x-1-1-1-x-|
|1-1-x-1-x-1-x-1-1-1-x-|
|2-2-x-2-x-2-x-2-2-2-x-| [A lot of times. Ska chords.]
|3-3-x-3-x-3-x-3-3-3-x-|
|x-x-x-x-x-x-x-x-x-x-x-|
|x-x-x-x-x-x-x-x-x-x-x-|

|1--1--1----1--3-|
|1--1--1----1--3-|
|2--2--2----2--4-|
|3--3--3----3--5-|
|----------------|
|----------------|

 v ^ v ^ v ^ v ^ v ^ v
|1-1-x-1-x-1-x-1-1-1-x-|
|1-1-x-1-x-1-x-1-1-1-x-|
|2-2-x-2-x-2-x-2-2-2-x-| [A lot of times. Ska chords]
|3-3-x-3-x-3-x-3-3-3-x-|
|x-x-x-x-x-x-x-x-x-x-x-|
|x-x-x-x-x-x-x-x-x-x-x-|

|1
|1
|2
|3
|-
|-
Tap to rate this tab
# A B C D E F G H I J K L M N O P Q R S T U V W X Y Z