Song name
# A B C D E F G H I J K L M N O P Q R S T U V W X Y Z

Patent Pending - Demo For Dayna tab

its annoying how all the other tabs for this have like
1 or 2 notes wrong...
well heres the right way...
and the roots that you play in the intro
are the chords that you play in the rest of the song...
here it is:

standard tuning

e
b
g
d
a
e

intro:

------------------------------------------------------------------------|
------------------------------------------------------------------------|
------------------------------------------------------------------------|
------------------------------------------------------------------------|
-------------7----7-----7----7----7----7----7----7----7----7----7----7--|
--4h5p4-0-00---00----00---00---00---00---00---00---44---55---77---00----|


--------------------------------------------------------------|
--------------------------------------------------------------|
--------------------------------------------------------------|
--------------------------------------------------------------|
-----7----7----7----7----7----7----7----7----7----7----7------|
--44---55---77---00---44---55---77---00---44---55---77--------|

then end on an E chord..

--------------------------------------------------------------|
--------------------------------------------------------------|
--------------------------------------------------------------|
--2-----------------------------------------------------------|
--2-----------------------------------------------------------|
--0-----------------------------------------------------------|

the verse are these chords (high E, A, G#, A, B)
repeat 4x
--------------------------------------------------------------|
--------------------------------------------------------------|
--999--999--999--999------------------------------------------|
--999--999--999--999--777--666--777--999----------------------|
--777--777--777--777--777--666--777--999----------------------|
----------------------555--444--555--777----------------------|

on the 4th time before the chorus end on A
--------------------------------------------------------------|
--------------------------------------------------------------|
--------------------------------------------------------------|
--777---------------------------------------------------------|
--777---------------------------------------------------------|
--555---------------------------------------------------------|

chorus (G#,A,B,low E,G#,A,B, high E)
repeat 2x
--------------------------------------------------------------|
--------------------------------------------------------------|
-------------------------------------999----------------------|
--666--777--999--222--666--777--999--999----------------------|
--666--777--999--222--666--777--999--777----------------------|
--444--555--777--000--444--555--777---------------------------|

then the verse again
then the chorus twice
then the intro

the part at 2:34 goes like this.
these are also the notes in the song (b, g#, e,a,f#, etc.)

----4-0----------4-0----------4-0-----------------------------|
--0-----0------0-----0------0-----0---------------------------|
----------2-1----------2-1----------2-1-2-1---1---------------|
--------------------------------------------4---4-2-----------|
--------------------------------------------------------------|
--------------------------------------------------------------|

the buildup is palm muted and is just like the chorus except only
using the low e chord...repeat 8x

--------------------------------------------------------------|
--------------------------------------------------------------|
--------------------------------------------------------------|
--666--777--999--222------------------------------------------|
--666--777--999--222------------------------------------------|
--444--555--777--000------------------------------------------|

then end on a high E

--------------------------------------------------------------|
--------------------------------------------------------------|
--9-----------------------------------------------------------|
--9-----------------------------------------------------------|
--7-----------------------------------------------------------|
--------------------------------------------------------------|

then end on the intro.
Tap to rate this tab
# A B C D E F G H I J K L M N O P Q R S T U V W X Y Z